  0
SECTION
  2
HEADER
  9
$ACADVER
  1
AC1015
  9
$ACADMAINTVER
 70
     6
  9
$DWGCODEPAGE
  3
ANSI_1252
  9
$INSBASE
 10
0.0
 20
0.0
 30
0.0
  9
$EXTMIN
 10
0.0
 20
0.0
 30
0.0
  9
$EXTMAX
 10
420.0
 20
297.0
 30
0.0
  9
$LIMMIN
 10
0.0
 20
0.0
  9
$LIMMAX
 10
420.0
 20
297.0
  9
$ORTHOMODE
 70
     0
  9
$REGENMODE
 70
     1
  9
$FILLMODE
 70
     1
  9
$QTEXTMODE
 70
     0
  9
$MIRRTEXT
 70
     1
  9
$LTSCALE
 40
1.0
  9
$ATTMODE
 70
     1
  9
$TEXTSIZE
 40
3.5
  9
$TRACEWID
 40
1.0
  9
$TEXTSTYLE
  7
Standard
  9
$CLAYER
  8
0
  9
$CELTYPE
  6
ByLayer
  9
$CECOLOR
 62
   256
  9
$CELTSCALE
 40
1.0
  9
$DISPSILH
 70
     0
  9
$DIMSCALE
 40
1.0
  9
$DIMASZ
 40
3.556
  9
$DIMEXO
 40
1.0
  9
$DIMDLI
 40
3.75
  9
$DIMRND
 40
0.0
  9
$DIMDLE
 40
0.0
  9
$DIMEXE
 40
1.0
  9
$DIMTP
 40
0.0
  9
$DIMTM
 40
0.0
  9
$DIMTXT
 40
3.5
  9
$DIMCEN
 40
2.5
  9
$DIMTSZ
 40
0.0
  9
$DIMTOL
 70
     0
  9
$DIMLIM
 70
     0
  9
$DIMTIH
 70
     1
  9
$DIMTOH
 70
     1
  9
$DIMSE1
 70
     0
  9
$DIMSE2
 70
     0
  9
$DIMTAD
 70
     1
  9
$DIMZIN
 70
     1
  9
$DIMBLK
  1

  9
$DIMASO
 70
     1
  9
$DIMSHO
 70
     1
  9
$DIMPOST
  1

  9
$DIMAPOST
  1

  9
$DIMALT
 70
     0
  9
$DIMALTD
 70
     3
  9
$DIMALTF
 40
0.0393700787
  9
$DIMLFAC
 40
10.0
  9
$DIMTOFL
 70
     1
  9
$DIMTVP
 40
0.0
  9
$DIMTIX
 70
     0
  9
$DIMSOXD
 70
     0
  9
$DIMSAH
 70
     0
  9
$DIMBLK1
  1

  9
$DIMBLK2
  1

  9
$DIMSTYLE
  2
ISO-25
  9
$DIMCLRD
 70
     0
  9
$DIMCLRE
 70
     0
  9
$DIMCLRT
 70
     0
  9
$DIMTFAC
 40
1.0
  9
$DIMGAP
 40
1.524
  9
$DIMJUST
 70
     0
  9
$DIMSD1
 70
     0
  9
$DIMSD2
 70
     0
  9
$DIMTOLJ
 70
     0
  9
$DIMTZIN
 70
     1
  9
$DIMALTZ
 70
     0
  9
$DIMALTTZ
 70
     0
  9
$DIMUPT
 70
     0
  9
$DIMDEC
 70
     2
  9
$DIMTDEC
 70
     2
  9
$DIMALTU
 70
     2
  9
$DIMALTTD
 70
     3
  9
$DIMTXSTY
  7
Standard
  9
$DIMAUNIT
 70
     0
  9
$DIMADEC
 70
     2
  9
$DIMALTRND
 40
0.0
  9
$DIMAZIN
 70
     0
  9
$DIMDSEP
 70
    44
  9
$DIMATFIT
 70
     3
  9
$DIMFRAC
 70
     0
  9
$DIMLDRBLK
  1

  9
$DIMLUNIT
 70
     2
  9
$DIMLWD
 70
    -2
  9
$DIMLWE
 70
    -2
  9
$DIMTMOVE
 70
     0
  9
$LUNITS
 70
     2
  9
$LUPREC
 70
     6
  9
$SKETCHINC
 40
1.0
  9
$FILLETRAD
 40
0.0
  9
$AUNITS
 70
     0
  9
$AUPREC
 70
     2
  9
$MENU
  1
.
  9
$ELEVATION
 40
0.0
  9
$PELEVATION
 40
0.0
  9
$THICKNESS
 40
0.0
  9
$LIMCHECK
 70
     0
  9
$CHAMFERA
 40
0.0
  9
$CHAMFERB
 40
0.0
  9
$CHAMFERC
 40
0.0
  9
$CHAMFERD
 40
0.0
  9
$SKPOLY
 70
     0
  9
$TDCREATE
 40
2460167.395431424
  9
$TDUCREATE
 40
2460166.978764757
  9
$TDUPDATE
 40
2460167.395433982
  9
$TDUUPDATE
 40
2460166.978767315
  9
$TDINDWG
 40
0.0000000116
  9
$TDUSRTIMER
 40
0.0000000116
  9
$USRTIMER
 70
     1
  9
$ANGBASE
 50
0.0
  9
$ANGDIR
 70
     0
  9
$PDMODE
 70
     0
  9
$PDSIZE
 40
-1.0
  9
$PLINEWID
 40
0.0
  9
$SPLFRAME
 70
     0
  9
$SPLINETYPE
 70
     6
  9
$SPLINESEGS
 70
     8
  9
$HANDSEED
  5
62E
  9
$SURFTAB1
 70
     6
  9
$SURFTAB2
 70
     6
  9
$SURFTYPE
 70
     6
  9
$SURFU
 70
     6
  9
$SURFV
 70
     6
  9
$UCSBASE
  2

  9
$UCSNAME
  2

  9
$UCSORG
 10
0.0
 20
0.0
 30
0.0
  9
$UCSXDIR
 10
1.0
 20
0.0
 30
0.0
  9
$UCSYDIR
 10
0.0
 20
1.0
 30
0.0
  9
$UCSORTHOREF
  2

  9
$UCSORTHOVIEW
 70
     0
  9
$UCSORGTOP
 10
0.0
 20
0.0
 30
0.0
  9
$UCSORGBOTTOM
 10
0.0
 20
0.0
 30
0.0
  9
$UCSORGLEFT
 10
0.0
 20
0.0
 30
0.0
  9
$UCSORGRIGHT
 10
0.0
 20
0.0
 30
0.0
  9
$UCSORGFRONT
 10
0.0
 20
0.0
 30
0.0
  9
$UCSORGBACK
 10
0.0
 20
0.0
 30
0.0
  9
$PUCSBASE
  2

  9
$PUCSNAME
  2

  9
$PUCSORG
 10
0.0
 20
0.0
 30
0.0
  9
$PUCSXDIR
 10
1.0
 20
0.0
 30
0.0
  9
$PUCSYDIR
 10
0.0
 20
1.0
 30
0.0
  9
$PUCSORTHOREF
  2

  9
$PUCSORTHOVIEW
 70
     0
  9
$PUCSORGTOP
 10
0.0
 20
0.0
 30
0.0
  9
$PUCSORGBOTTOM
 10
0.0
 20
0.0
 30
0.0
  9
$PUCSORGLEFT
 10
0.0
 20
0.0
 30
0.0
  9
$PUCSORGRIGHT
 10
0.0
 20
0.0
 30
0.0
  9
$PUCSORGFRONT
 10
0.0
 20
0.0
 30
0.0
  9
$PUCSORGBACK
 10
0.0
 20
0.0
 30
0.0
  9
$USERI1
 70
     0
  9
$USERI2
 70
     0
  9
$USERI3
 70
     0
  9
$USERI4
 70
     0
  9
$USERI5
 70
     0
  9
$USERR1
 40
0.0
  9
$USERR2
 40
0.0
  9
$USERR3
 40
0.0
  9
$USERR4
 40
0.0
  9
$USERR5
 40
0.0
  9
$WORLDVIEW
 70
     1
  9
$SHADEDGE
 70
     3
  9
$SHADEDIF
 70
    70
  9
$TILEMODE
 70
     1
  9
$MAXACTVP
 70
    64
  9
$PINSBASE
 10
0.0
 20
0.0
 30
0.0
  9
$PLIMCHECK
 70
     0
  9
$PEXTMIN
 10
1.0000000000E+20
 20
1.0000000000E+20
 30
1.0000000000E+20
  9
$PEXTMAX
 10
-1.0000000000E+20
 20
-1.0000000000E+20
 30
-1.0000000000E+20
  9
$PLIMMIN
 10
0.0
 20
0.0
  9
$PLIMMAX
 10
420.0
 20
297.0
  9
$UNITMODE
 70
     0
  9
$VISRETAIN
 70
     1
  9
$PLINEGEN
 70
     0
  9
$PSLTSCALE
 70
     1
  9
$TREEDEPTH
 70
  3020
  9
$CMLSTYLE
  2
Standard
  9
$CMLJUST
 70
     0
  9
$CMLSCALE
 40
20.0
  9
$PROXYGRAPHICS
 70
     1
  9
$MEASUREMENT
 70
     1
  9
$CELWEIGHT
370
    -1
  9
$ENDCAPS
280
     0
  9
$JOINSTYLE
280
     0
  9
$LWDISPLAY
290
     1
  9
$INSUNITS
 70
     4
  9
$HYPERLINKBASE
  1

  9
$STYLESHEET
  1

  9
$XEDIT
290
     1
  9
$CEPSNTYPE
380
     0
  9
$PSTYLEMODE
290
     1
  9
$FINGERPRINTGUID
  2
{79469bff-488a-4fb3-b7f1-9c225040167f}
  9
$VERSIONGUID
  2
{FAEB1C32-E019-11D5-929B-00C0DF256EC4}
  9
$EXTNAMES
290
     1
  9
$PSVPSCALE
 40
0.0
  9
$OLESTARTUP
290
     0
  0
ENDSEC
  0
SECTION
  2
CLASSES
  0
CLASS
  1
ACDBDICTIONARYWDFLT
  2
AcDbDictionaryWithDefault
  3
ObjectDBX Classes
 90
        0
280
     0
281
     0
  0
CLASS
  1
VISUALSTYLE
  2
AcDbVisualStyle
  3
ObjectDBX Classes
 90
     4095
280
     0
281
     0
  0
CLASS
  1
MATERIAL
  2
AcDbMaterial
  3
ObjectDBX Classes
 90
     1153
280
     0
281
     0
  0
CLASS
  1
SCALE
  2
AcDbScale
  3
ObjectDBX Classes
 90
     1153
280
     0
281
     0
  0
CLASS
  1
TABLESTYLE
  2
AcDbTableStyle
  3
ObjectDBX Classes
 90
     4095
280
     0
281
     0
  0
CLASS
  1
MLEADERSTYLE
  2
AcDbMLeaderStyle
  3
ACDB_MLEADERSTYLE_CLASS
 90
     4095
280
     0
281
     0
  0
CLASS
  1
SUN
  2
AcDbSun
  3
SCENEOE
 90
     1153
280
     0
281
     0
  0
CLASS
  1
ACDBPLACEHOLDER
  2
AcDbPlaceHolder
  3
ObjectDBX Classes
 90
        0
280
     0
281
     0
  0
CLASS
  1
LAYOUT
  2
AcDbLayout
  3
ObjectDBX Classes
 90
        0
280
     0
281
     0
  0
ENDSEC
  0
SECTION
  2
TABLES
  0
TABLE
  2
VPORT
  5
8
330
0
100
AcDbSymbolTable
 70
     1
  0
VPORT
  5
29
330
8
100
AcDbSymbolTableRecord
100
AcDbViewportTableRecord
  2
*Active
 70
     0
 10
0.0
 20
0.0
 11
1.0
 21
1.0
 12
210.0
 22
148.5
 13
0.0
 23
0.0
 14
10.0
 24
10.0
 15
10.0
 25
10.0
 16
0.0
 26
0.0
 36
1.0
 17
0.0
 27
0.0
 37
0.0
 40
297.0
 41
1.4141414141
 42
50.0
 43
0.0
 44
0.0
 50
0.0
 51
0.0
 71
     0
 72
  2000
 73
     1
 74
     3
 75
     0
 76
     0
 77
     0
 78
     0
281
     0
 65
     1
110
0.0
120
0.0
130
0.0
111
1.0
121
0.0
131
0.0
112
0.0
122
1.0
132
0.0
 79
     0
146
0.0
  0
ENDTAB
  0
TABLE
  2
LTYPE
  5
5
330
0
100
AcDbSymbolTable
 70
     6
  0
LTYPE
  5
14
330
5
100
AcDbSymbolTableRecord
100
AcDbLinetypeTableRecord
  2
ByBlock
 70
     0
  3

 72
    65
 73
     0
 40
0.0
  0
LTYPE
  5
15
330
5
100
AcDbSymbolTableRecord
100
AcDbLinetypeTableRecord
  2
ByLayer
 70
     0
  3

 72
    65
 73
     0
 40
0.0
  0
LTYPE
  5
16
330
5
100
AcDbSymbolTableRecord
100
AcDbLinetypeTableRecord
  2
Continuous
 70
     0
  3
Solid line
 72
    65
 73
     0
 40
0.0
  0
LTYPE
  5
5E
330
5
100
AcDbSymbolTableRecord
100
AcDbLinetypeTableRecord
  2
HIDDEN
 70
     0
  3
Hidden __ __ __ __ __ __ __ __ __ __ __ __ __ __
 72
    65
 73
     2
 40
1.905
 49
1.27
 74
     0
 49
-0.635
 74
     0
  0
LTYPE
  5
5F
330
5
100
AcDbSymbolTableRecord
100
AcDbLinetypeTableRecord
  2
PHANTOM
 70
     0
  3
Phantom ______  __  __  ______  __  __  ______
 72
    65
 73
     6
 40
12.7
 49
6.35
 74
     0
 49
-1.27
 74
     0
 49
1.27
 74
     0
 49
-1.27
 74
     0
 49
1.27
 74
     0
 49
-1.27
 74
     0
  0
LTYPE
  5
60
330
5
100
AcDbSymbolTableRecord
100
AcDbLinetypeTableRecord
  2
CENTER
 70
     0
  3
Center ____ _ ____ _ ____ _ ____ _ ____ _ ____
 72
    65
 73
     4
 40
10.16
 49
6.35
 74
     0
 49
-1.27
 74
     0
 49
1.27
 74
     0
 49
-1.27
 74
     0
  0
LTYPE
  5
61
330
5
100
AcDbSymbolTableRecord
100
AcDbLinetypeTableRecord
  2
CENTERX2
 70
     0
  3
Center (2x) ________  __  ________  __  _____
 72
    65
 73
     4
 40
20.32
 49
12.7
 74
     0
 49
-2.54
 74
     0
 49
2.54
 74
     0
 49
-2.54
 74
     0
  0
LTYPE
  5
62
330
5
100
AcDbSymbolTableRecord
100
AcDbLinetypeTableRecord
  2
DOT2
 70
     0
  3
Dot (.5x) ........................................
 72
    65
 73
     2
 40
0.635
 49
0.0
 74
     0
 49
-0.635
 74
     0
  0
ENDTAB
  0
TABLE
  2
LAYER
  5
2
330
0
100
AcDbSymbolTable
 70
     2
  0
LAYER
  5
10
330
2
100
AcDbSymbolTableRecord
100
AcDbLayerTableRecord
  2
0
 70
     0
 62
     7
  6
Continuous
370
    -3
390
F
  0
LAYER
  5
63
330
2
100
AcDbSymbolTableRecord
100
AcDbLayerTableRecord
  2
FORMAT
 70
     0
 62
     7
  6
Continuous
370
    -3
390
F
  0
ENDTAB
  0
TABLE
  2
STYLE
  5
3
330
0
100
AcDbSymbolTable
 70
     5
  0
STYLE
  5
11
330
3
100
AcDbSymbolTableRecord
100
AcDbTextStyleTableRecord
  2
Standard
 70
     0
 40
0.0
 41
1.0
 50
0.0
 71
     0
 42
3.5
  3
txt
  4

  0
STYLE
  5
A1
330
3
100
AcDbSymbolTableRecord
100
AcDbTextStyleTableRecord
  2
SLDTEXTSTYLE0
 70
     0
 40
0.0
 41
0.75
 50
0.0
 71
     0
 42
3.5
  3
TXT
  4

  0
STYLE
  5
A6
330
3
100
AcDbSymbolTableRecord
100
AcDbTextStyleTableRecord
  2
SLDTEXTSTYLE1
 70
     0
 40
0.0
 41
0.6933962264
 50
0.0
 71
     0
 42
3.5
  3
TXT
  4

  0
STYLE
  5
D3
330
3
100
AcDbSymbolTableRecord
100
AcDbTextStyleTableRecord
  2
SLDTEXTSTYLE2
 70
     0
 40
0.0
 41
0.6864493306
 50
0.0
 71
     0
 42
3.5
  3
TXT
  4

  0
STYLE
  5
EC
330
3
100
AcDbSymbolTableRecord
100
AcDbTextStyleTableRecord
  2
SLDTEXTSTYLE3
 70
     0
 40
0.0
 41
0.6875
 50
0.0
 71
     0
 42
3.5
  3
TXT
  4

  0
ENDTAB
  0
TABLE
  2
VIEW
  5
6
330
0
100
AcDbSymbolTable
 70
     0
  0
ENDTAB
  0
TABLE
  2
UCS
  5
7
330
0
100
AcDbSymbolTable
 70
     0
  0
ENDTAB
  0
TABLE
  2
APPID
  5
9
330
0
100
AcDbSymbolTable
 70
     1
  0
APPID
  5
12
330
9
100
AcDbSymbolTableRecord
100
AcDbRegAppTableRecord
  2
ACAD
 70
     0
  0
ENDTAB
  0
TABLE
  2
DIMSTYLE
  5
A
330
0
100
AcDbSymbolTable
 70
     2
100
AcDbDimStyleTable
  0
DIMSTYLE
105
27
330
A
100
AcDbSymbolTableRecord
100
AcDbDimStyleTableRecord
  2
ISO-25
 70
     0
 41
2.5
 42
0.625
 43
3.75
 44
1.25
 73
     0
 74
     0
 77
     1
 78
     8
140
2.5
141
2.5
143
0.0393700787
147
0.625
171
     3
172
     1
178
     0
271
     2
272
     2
274
     3
278
    44
283
     0
284
     8
340
11
  0
DIMSTYLE
105
5E9
330
A
100
AcDbSymbolTableRecord
100
AcDbDimStyleTableRecord
  2
SLDDIMSTYLE0
 70
     0
 41
3.556
 44
0.0
 45
0.000000001
146
3.556
147
0.0
173
     1
178
     0
271
     0
272
     0
276
     2
340
11
  0
ENDTAB
  0
TABLE
  2
BLOCK_RECORD
  5
1
330
0
100
AcDbSymbolTable
 70
    19
  0
BLOCK_RECORD
  5
1F
330
1
100
AcDbSymbolTableRecord
100
AcDbBlockTableRecord
  2
*Model_Space
340
22
  0
BLOCK_RECORD
  5
1B
330
1
100
AcDbSymbolTableRecord
100
AcDbBlockTableRecord
  2
*Paper_Space
340
1E
  0
BLOCK_RECORD
  5
23
330
1
100
AcDbSymbolTableRecord
100
AcDbBlockTableRecord
  2
*Paper_Space0
340
26
  0
BLOCK_RECORD
  5
1DA
330
1
100
AcDbSymbolTableRecord
100
AcDbBlockTableRecord
  2
SW_HATCH_0
340
0
102
{BLKREFS
331
208
102
}
  0
BLOCK_RECORD
  5
20A
330
1
100
AcDbSymbolTableRecord
100
AcDbBlockTableRecord
  2
SW_HATCH_1
340
0
102
{BLKREFS
331
3AE
102
}
  0
BLOCK_RECORD
  5
3AF
330
1
100
AcDbSymbolTableRecord
100
AcDbBlockTableRecord
  2
SW_HATCH_2
340
0
102
{BLKREFS
331
403
102
}
  0
BLOCK_RECORD
  5
405
330
1
100
AcDbSymbolTableRecord
100
AcDbBlockTableRecord
  2
SW_HATCH_3
340
0
102
{BLKREFS
331
599
102
}
  0
BLOCK_RECORD
  5
59A
330
1
100
AcDbSymbolTableRecord
100
AcDbBlockTableRecord
  2
SW_HATCH_4
340
0
102
{BLKREFS
331
5A4
102
}
  0
BLOCK_RECORD
  5
5A5
330
1
100
AcDbSymbolTableRecord
100
AcDbBlockTableRecord
  2
SW_HATCH_5
340
0
102
{BLKREFS
331
5B3
102
}
  0
BLOCK_RECORD
  5
5B4
330
1
100
AcDbSymbolTableRecord
100
AcDbBlockTableRecord
  2
SW_HATCH_6
340
0
102
{BLKREFS
331
5D3
102
}
  0
BLOCK_RECORD
  5
5D4
330
1
100
AcDbSymbolTableRecord
100
AcDbBlockTableRecord
  2
SW_HATCH_7
340
0
102
{BLKREFS
331
5DA
102
}
  0
BLOCK_RECORD
  5
5DB
330
1
100
AcDbSymbolTableRecord
100
AcDbBlockTableRecord
  2
SW_HATCH_8
340
0
102
{BLKREFS
331
5E2
102
}
  0
BLOCK_RECORD
  5
5E3
330
1
100
AcDbSymbolTableRecord
100
AcDbBlockTableRecord
  2
SW_NOTE_0
340
0
102
{BLKREFS
331
5E8
102
}
  0
BLOCK_RECORD
  5
5EB
330
1
100
AcDbSymbolTableRecord
100
AcDbBlockTableRecord
  2
SW_NOTE_0_1
340
0
102
{BLKREFS
331
5EF
102
}
  0
BLOCK_RECORD
  5
5F1
330
1
100
AcDbSymbolTableRecord
100
AcDbBlockTableRecord
  2
SW_NOTE_0_2
340
0
102
{BLKREFS
331
5F5
102
}
  0
BLOCK_RECORD
  5
5F7
330
1
100
AcDbSymbolTableRecord
100
AcDbBlockTableRecord
  2
SW_NOTE_0_3
340
0
102
{BLKREFS
331
5FC
102
}
  0
BLOCK_RECORD
  5
5FE
330
1
100
AcDbSymbolTableRecord
100
AcDbBlockTableRecord
  2
SW_NOTE_0_4
340
0
102
{BLKREFS
331
605
102
}
  0
BLOCK_RECORD
  5
607
330
1
100
AcDbSymbolTableRecord
100
AcDbBlockTableRecord
  2
SW_NOTE_0_5
340
0
102
{BLKREFS
331
60E
102
}
  0
BLOCK_RECORD
  5
610
330
1
100
AcDbSymbolTableRecord
100
AcDbBlockTableRecord
  2
SW_NOTE_0_6
340
0
102
{BLKREFS
331
619
102
}
  0
BLOCK_RECORD
  5
61B
330
1
100
AcDbSymbolTableRecord
100
AcDbBlockTableRecord
  2
SW_NOTE_0_7
340
0
102
{BLKREFS
331
620
102
}
  0
BLOCK_RECORD
  5
622
330
1
100
AcDbSymbolTableRecord
100
AcDbBlockTableRecord
  2
SW_NOTE_0_8
340
0
102
{BLKREFS
331
627
102
}
  0
ENDTAB
  0
ENDSEC
  0
SECTION
  2
BLOCKS
  0
BLOCK
  5
20
330
1F
100
AcDbEntity
  8
0
100
AcDbBlockBegin
  2
*Model_Space
 70
     0
 10
0.0
 20
0.0
 30
0.0
  3
*Model_Space
  1

  0
ENDBLK
  5
21
330
1F
100
AcDbEntity
  8
0
100
AcDbBlockEnd
  0
BLOCK
  5
1C
330
1B
100
AcDbEntity
 67
     1
  8
0
100
AcDbBlockBegin
  2
*Paper_Space
 70
     0
 10
0.0
 20
0.0
 30
0.0
  3
*Paper_Space
  1

  0
ENDBLK
  5
1D
330
1B
100
AcDbEntity
 67
     1
  8
0
100
AcDbBlockEnd
  0
BLOCK
  5
24
330
23
100
AcDbEntity
  8
0
100
AcDbBlockBegin
  2
*Paper_Space0
 70
     0
 10
0.0
 20
0.0
 30
0.0
  3
*Paper_Space0
  1

  0
ENDBLK
  5
25
330
23
100
AcDbEntity
  8
0
100
AcDbBlockEnd
  0
BLOCK
  5
1DB
330
1DA
100
AcDbEntity
  8
0
100
AcDbBlockBegin
  2
SW_HATCH_0
 70
     0
 10
0.0
 20
0.0
 30
0.0
  3
SW_HATCH_0
  1

  0
LINE
  5
1DD
330
1DA
100
AcDbEntity
  8
0
  6
Continuous
 62
     0
370
    18
100
AcDbLine
 10
0.0
 20
0.0
 30
0.0
 11
-25.1654275705
 21
0.0
 31
0.0
  0
LINE
  5
1DE
330
1DA
100
AcDbEntity
  8
0
  6
Continuous
 62
     0
370
    18
100
AcDbLine
 10
0.9378124938
 20
-9.525
 30
0.0
 11
-63.2654275705
 21
-9.525
 31
0.0
  0
LINE
  5
1DF
330
1DA
100
AcDbEntity
  8
0
  6
Continuous
 62
     0
370
    18
100
AcDbLine
 10
-25.914310436
 20
-19.05
 30
0.0
 11
-101.3654275705
 21
-19.05
 31
0.0
  0
LINE
  5
1E0
330
1DA
100
AcDbEntity
  8
0
  6
Continuous
 62
     0
370
    18
100
AcDbLine
 10
-64.014310436
 20
-28.575
 30
0.0
 11
-146.5507716091
 21
-28.575
 31
0.0
  0
LINE
  5
1E1
330
1DA
100
AcDbEntity
  8
0
  6
Continuous
 62
     0
370
    18
100
AcDbLine
 10
-101.0849336003
 20
-38.1
 30
0.0
 11
-110.3475563947
 21
-38.1
 31
0.0
  0
LINE
  5
1E2
330
1DA
100
AcDbEntity
  8
0
  6
Continuous
 62
     0
370
    18
100
AcDbLine
 10
-0.1563020823
 20
1.5875
 30
0.0
 11
-18.8154275705
 21
1.5875
 31
0.0
  0
LINE
  5
1E3
330
1DA
100
AcDbEntity
  8
0
  6
Continuous
 62
     0
370
    18
100
AcDbLine
 10
0.7815104115
 20
-7.9375
 30
0.0
 11
-56.9154275705
 21
-7.9375
 31
0.0
  0
LINE
  5
1E4
330
1DA
100
AcDbEntity
  8
0
  6
Continuous
 62
     0
370
    18
100
AcDbLine
 10
-19.564310436
 20
-17.4625
 30
0.0
 11
-95.0154275705
 21
-17.4625
 31
0.0
  0
LINE
  5
1E5
330
1DA
100
AcDbEntity
  8
0
  6
Continuous
 62
     0
370
    18
100
AcDbLine
 10
-134.9076957386
 20
-26.9875
 30
0.0
 11
-146.5507716091
 21
-26.9875
 31
0.0
  0
LINE
  5
1E6
330
1DA
100
AcDbEntity
  8
0
  6
Continuous
 62
     0
370
    18
100
AcDbLine
 10
-57.664310436
 20
-26.9875
 30
0.0
 11
-127.0796680264
 21
-26.9875
 31
0.0
  0
LINE
  5
1E7
330
1DA
100
AcDbEntity
  8
0
  6
Continuous
 62
     0
370
    18
100
AcDbLine
 10
-96.6539817943
 20
-36.5125
 30
0.0
 11
-112.2375425443
 21
-36.5125
 31
0.0
  0
LINE
  5
1E8
330
1DA
100
AcDbEntity
  8
0
  6
Continuous
 62
     0
370
    18
100
AcDbLine
 10
-0.3126041646
 20
3.175
 30
0.0
 11
-12.4654275705
 21
3.175
 31
0.0
  0
LINE
  5
1E9
330
1DA
100
AcDbEntity
  8
0
  6
Continuous
 62
     0
370
    18
100
AcDbLine
 10
0.6252083292
 20
-6.35
 30
0.0
 11
-50.5654275705
 21
-6.35
 31
0.0
  0
LINE
  5
1EA
330
1DA
100
AcDbEntity
  8
0
  6
Continuous
 62
     0
370
    18
100
AcDbLine
 10
-13.214310436
 20
-15.875
 30
0.0
 11
-88.6654275705
 21
-15.875
 31
0.0
  0
LINE
  5
1EB
330
1DA
100
AcDbEntity
  8
0
  6
Continuous
 62
     0
370
    18
100
AcDbLine
 10
-137.7298063255
 20
-25.4
 30
0.0
 11
-146.5507716091
 21
-25.4
 31
0.0
  0
LINE
  5
1EC
330
1DA
100
AcDbEntity
  8
0
  6
Continuous
 62
     0
370
    18
100
AcDbLine
 10
-51.314310436
 20
-25.4
 30
0.0
 11
-124.4211235121
 21
-25.4
 31
0.0
  0
LINE
  5
1ED
330
1DA
100
AcDbEntity
  8
0
  6
Continuous
 62
     0
370
    18
100
AcDbLine
 10
-89.414310436
 20
-34.925
 30
0.0
 11
-114.1275286939
 21
-34.925
 31
0.0
  0
LINE
  5
1EE
330
1DA
100
AcDbEntity
  8
0
  6
Continuous
 62
     0
370
    18
100
AcDbLine
 10
-1.5070586318
 20
-3.175
 30
0.0
 11
0.3126041646
 21
-3.175
 31
0.0
  0
LINE
  5
1EF
330
1DA
100
AcDbEntity
  8
0
  6
Continuous
 62
     0
370
    18
100
AcDbLine
 10
-17.3820586318
 20
-3.175
 30
0.0
 11
-7.8570586318
 21
-3.175
 31
0.0
  0
LINE
  5
1F0
330
1DA
100
AcDbEntity
  8
0
  6
Continuous
 62
     0
370
    18
100
AcDbLine
 10
-33.2570586318
 20
-3.175
 30
0.0
 11
-23.7320586318
 21
-3.175
 31
0.0
  0
LINE
  5
1F1
330
1DA
100
AcDbEntity
  8
0
  6
Continuous
 62
     0
370
    18
100
AcDbLine
 10
-1.5070586318
 20
-12.7
 30
0.0
 11
-0.514310436
 21
-12.7
 31
0.0
  0
LINE
  5
1F2
330
1DA
100
AcDbEntity
  8
0
  6
Continuous
 62
     0
370
    18
100
AcDbLine
 10
-17.3820586318
 20
-12.7
 30
0.0
 11
-7.8570586318
 21
-12.7
 31
0.0
  0
LINE
  5
1F3
330
1DA
100
AcDbEntity
  8
0
  6
Continuous
 62
     0
370
    18
100
AcDbLine
 10
-33.2570586318
 20
-12.7
 30
0.0
 11
-23.7320586318
 21
-12.7
 31
0.0
  0
LINE
  5
1F4
330
1DA
100
AcDbEntity
  8
0
  6
Continuous
 62
     0
370
    18
100
AcDbLine
 10
-49.1320586318
 20
-12.7
 30
0.0
 11
-39.6070586318
 21
-12.7
 31
0.0
  0
LINE
  5
1F5
330
1DA
100
AcDbEntity
  8
0
  6
Continuous
 62
     0
370
    18
100
AcDbLine
 10
-65.0070586318
 20
-12.7
 30
0.0
 11
-55.4820586318
 21
-12.7
 31
0.0
  0
LINE
  5
1F6
330
1DA
100
AcDbEntity
  8
0
  6
Continuous
 62
     0
370
    18
100
AcDbLine
 10
-75.9654275705
 20
-12.7
 30
0.0
 11
-71.3570586318
 21
-12.7
 31
0.0
  0
LINE
  5
1F7
330
1DA
100
AcDbEntity
  8
0
  6
Continuous
 62
     0
370
    18
100
AcDbLine
 10
-49.1320586318
 20
-22.225
 30
0.0
 11
-39.6070586318
 21
-22.225
 31
0.0
  0
LINE
  5
1F8
330
1DA
100
AcDbEntity
  8
0
  6
Continuous
 62
     0
370
    18
100
AcDbLine
 10
-65.0070586318
 20
-22.225
 30
0.0
 11
-55.4820586318
 21
-22.225
 31
0.0
  0
LINE
  5
1F9
330
1DA
100
AcDbEntity
  8
0
  6
Continuous
 62
     0
370
    18
100
AcDbLine
 10
-80.8820586318
 20
-22.225
 30
0.0
 11
-71.3570586318
 21
-22.225
 31
0.0
  0
LINE
  5
1FA
330
1DA
100
AcDbEntity
  8
0
  6
Continuous
 62
     0
370
    18
100
AcDbLine
 10
-96.7570586318
 20
-22.225
 30
0.0
 11
-87.2320586318
 21
-22.225
 31
0.0
  0
LINE
  5
1FB
330
1DA
100
AcDbEntity
  8
0
  6
Continuous
 62
     0
370
    18
100
AcDbLine
 10
-112.6320586318
 20
-22.225
 30
0.0
 11
-103.1070586318
 21
-22.225
 31
0.0
  0
LINE
  5
1FC
330
1DA
100
AcDbEntity
  8
0
  6
Continuous
 62
     0
370
    18
100
AcDbLine
 10
-80.8820586318
 20
-31.75
 30
0.0
 11
-76.714310436
 21
-31.75
 31
0.0
  0
LINE
  5
1FD
330
1DA
100
AcDbEntity
  8
0
  6
Continuous
 62
     0
370
    18
100
AcDbLine
 10
-96.7570586318
 20
-31.75
 30
0.0
 11
-87.2320586318
 21
-31.75
 31
0.0
  0
LINE
  5
1FE
330
1DA
100
AcDbEntity
  8
0
  6
Continuous
 62
     0
370
    18
100
AcDbLine
 10
-112.6320586318
 20
-31.75
 30
0.0
 11
-103.1070586318
 21
-31.75
 31
0.0
  0
LINE
  5
1FF
330
1DA
100
AcDbEntity
  8
0
  6
Continuous
 62
     0
370
    18
100
AcDbLine
 10
-128.5070586318
 20
-31.75
 30
0.0
 11
-118.9820586318
 21
-31.75
 31
0.0
  0
LINE
  5
200
330
1DA
100
AcDbEntity
  8
0
  6
Continuous
 62
     0
370
    18
100
AcDbLine
 10
-144.3820586318
 20
-31.75
 30
0.0
 11
-134.8570586318
 21
-31.75
 31
0.0
  0
LINE
  5
201
330
1DA
100
AcDbEntity
  8
0
  6
Continuous
 62
     0
370
    18
100
AcDbLine
 10
-112.6320586318
 20
-41.275
 30
0.0
 11
-108.1223803332
 21
-41.275
 31
0.0
  0
LINE
  5
202
330
1DA
100
AcDbEntity
  8
0
  6
Continuous
 62
     0
370
    18
100
AcDbLine
 10
-128.5070586318
 20
-41.275
 30
0.0
 11
-118.9820586318
 21
-41.275
 31
0.0
  0
LINE
  5
203
330
1DA
100
AcDbEntity
  8
0
  6
Continuous
 62
     0
370
    18
100
AcDbLine
 10
-144.3820586318
 20
-41.275
 30
0.0
 11
-134.8570586318
 21
-41.275
 31
0.0
  0
LINE
  5
204
330
1DA
100
AcDbEntity
  8
0
  6
Continuous
 62
     0
370
    18
100
AcDbLine
 10
-111.9023526323
 20
-38.1
 30
0.0
 11
-146.5507716091
 21
-38.1
 31
0.0
  0
LINE
  5
205
330
1DA
100
AcDbEntity
  8
0
  6
Continuous
 62
     0
370
    18
100
AcDbLine
 10
-113.7923387819
 20
-36.5125
 30
0.0
 11
-146.5507716091
 21
-36.5125
 31
0.0
  0
LINE
  5
206
330
1DA
100
AcDbEntity
  8
0
  6
Continuous
 62
     0
370
    18
100
AcDbLine
 10
-115.6823249315
 20
-34.925
 30
0.0
 11
-146.5507716091
 21
-34.925
 31
0.0
  0
LINE
  5
207
330
1DA
100
AcDbEntity
  8
0
  6
Continuous
 62
     0
370
    18
100
AcDbLine
 10
-106.5675840956
 20
-41.275
 30
0.0
 11
-105.0793533442
 21
-41.275
 31
0.0
  0
ENDBLK
  5
1DC
330
1DA
100
AcDbEntity
  8
0
100
AcDbBlockEnd
  0
BLOCK
  5
20B
330
20A
100
AcDbEntity
  8
0
100
AcDbBlockBegin
  2
SW_HATCH_1
 70
     0
 10
0.0
 20
0.0
 30
0.0
  3
SW_HATCH_1
  1

  0
LINE
  5
20D
330
20A
100
AcDbEntity
  8
0
  6
Continuous
 62
     0
370
    18
100
AcDbLine
 10
0.0
 20
0.0
 30
0.0
 11
1.4917620355
 21
0.5429569775
 31
0.0
  0
LINE
  5
20E
330
20A
100
AcDbEntity
  8
0
  6
Continuous
 62
     0
370
    18
100
AcDbLine
 10
-5.2751439419
 20
-1.9199953763
 30
0.0
 11
-4.4752861065
 21
-1.6288709326
 31
0.0
  0
LINE
  5
20F
330
20A
100
AcDbEntity
  8
0
  6
Continuous
 62
     0
370
    18
100
AcDbLine
 10
10.036486168
 20
0.2742177942
 30
0.0
 11
11.5282482035
 21
0.8171747717
 31
0.0
  0
LINE
  5
210
330
20A
100
AcDbEntity
  8
0
  6
Continuous
 62
     0
370
    18
100
AcDbLine
 10
4.0694380261
 20
-1.8976101159
 30
0.0
 11
5.5612000616
 21
-1.3546531384
 31
0.0
  0
LINE
  5
211
330
20A
100
AcDbEntity
  8
0
  6
Continuous
 62
     0
370
    18
100
AcDbLine
 10
-1.8976101159
 20
-4.0694380261
 30
0.0
 11
-0.4058480804
 21
-3.5264810485
 31
0.0
  0
LINE
  5
212
330
20A
100
AcDbEntity
  8
0
  6
Continuous
 62
     0
370
    18
100
AcDbLine
 10
20.0729723361
 20
0.5484355884
 30
0.0
 11
21.1409655092
 21
0.9371533138
 31
0.0
  0
LINE
  5
213
330
20A
100
AcDbEntity
  8
0
  6
Continuous
 62
     0
370
    18
100
AcDbLine
 10
14.1059241941
 20
-1.6233923218
 30
0.0
 11
15.5976862296
 21
-1.0804353442
 31
0.0
  0
LINE
  5
214
330
20A
100
AcDbEntity
  8
0
  6
Continuous
 62
     0
370
    18
100
AcDbLine
 10
8.1388760521
 20
-3.7952202319
 30
0.0
 11
9.6306380876
 21
-3.2522632543
 31
0.0
  0
LINE
  5
215
330
20A
100
AcDbEntity
  8
0
  6
Continuous
 62
     0
370
    18
100
AcDbLine
 10
2.1718279101
 20
-5.967048142
 30
0.0
 11
3.6635899456
 21
-5.4240911645
 31
0.0
  0
LINE
  5
216
330
20A
100
AcDbEntity
  8
0
  6
Continuous
 62
     0
370
    18
100
AcDbLine
 10
-3.7952202319
 20
-8.1388760521
 30
0.0
 11
-2.3034581964
 21
-7.5959190746
 31
0.0
  0
LINE
  5
217
330
20A
100
AcDbEntity
  8
0
  6
Continuous
 62
     0
370
    18
100
AcDbLine
 10
30.1094585041
 20
0.8226533825
 30
0.0
 11
30.4240444797
 21
0.9371533138
 31
0.0
  0
LINE
  5
218
330
20A
100
AcDbEntity
  8
0
  6
Continuous
 62
     0
370
    18
100
AcDbLine
 10
24.1424103621
 20
-1.3491745276
 30
0.0
 11
25.6341723976
 21
-0.80621755
 31
0.0
  0
LINE
  5
219
330
20A
100
AcDbEntity
  8
0
  6
Continuous
 62
     0
370
    18
100
AcDbLine
 10
18.1753622202
 20
-3.5210024377
 30
0.0
 11
19.6671242557
 21
-2.9780454602
 31
0.0
  0
LINE
  5
21A
330
20A
100
AcDbEntity
  8
0
  6
Continuous
 62
     0
370
    18
100
AcDbLine
 10
12.2083140782
 20
-5.6928303478
 30
0.0
 11
13.7000761137
 21
-5.1498733703
 31
0.0
  0
LINE
  5
21B
330
20A
100
AcDbEntity
  8
0
  6
Continuous
 62
     0
370
    18
100
AcDbLine
 10
6.2412659362
 20
-7.8646582579
 30
0.0
 11
7.7330279717
 21
-7.3217012804
 31
0.0
  0
LINE
  5
21C
330
20A
100
AcDbEntity
  8
0
  6
Continuous
 62
     0
370
    18
100
AcDbLine
 10
0.2742177942
 20
-10.036486168
 30
0.0
 11
1.7659798297
 21
-9.4935291905
 31
0.0
  0
LINE
  5
21D
330
20A
100
AcDbEntity
  8
0
  6
Continuous
 62
     0
370
    18
100
AcDbLine
 10
-5.6928303478
 20
-12.2083140782
 30
0.0
 11
-4.2010683123
 21
-11.6653571006
 31
0.0
  0
LINE
  5
21E
330
20A
100
AcDbEntity
  8
0
  6
Continuous
 62
     0
370
    18
100
AcDbLine
 10
34.1788965302
 20
-1.0749567334
 30
0.0
 11
34.9052124012
 21
-0.8105993757
 31
0.0
  0
LINE
  5
21F
330
20A
100
AcDbEntity
  8
0
  6
Continuous
 62
     0
370
    18
100
AcDbLine
 10
28.2118483882
 20
-3.2467846435
 30
0.0
 11
29.7036104237
 21
-2.703827666
 31
0.0
  0
LINE
  5
220
330
20A
100
AcDbEntity
  8
0
  6
Continuous
 62
     0
370
    18
100
AcDbLine
 10
22.2448002462
 20
-5.4186125536
 30
0.0
 11
23.7365622817
 21
-4.8756555761
 31
0.0
  0
LINE
  5
221
330
20A
100
AcDbEntity
  8
0
  6
Continuous
 62
     0
370
    18
100
AcDbLine
 10
16.2777521042
 20
-7.5904404637
 30
0.0
 11
17.7695141397
 21
-7.0474834862
 31
0.0
  0
LINE
  5
222
330
20A
100
AcDbEntity
  8
0
  6
Continuous
 62
     0
370
    18
100
AcDbLine
 10
10.3107039622
 20
-9.7622683739
 30
0.0
 11
11.8024659977
 21
-9.2193113963
 31
0.0
  0
LINE
  5
223
330
20A
100
AcDbEntity
  8
0
  6
Continuous
 62
     0
370
    18
100
AcDbLine
 10
4.3436558202
 20
-11.934096284
 30
0.0
 11
5.8354178557
 21
-11.3911393065
 31
0.0
  0
LINE
  5
224
330
20A
100
AcDbEntity
  8
0
  6
Continuous
 62
     0
370
    18
100
AcDbLine
 10
-1.6233923218
 20
-14.1059241941
 30
0.0
 11
-0.1316302863
 21
-13.5629672166
 31
0.0
  0
LINE
  5
225
330
20A
100
AcDbEntity
  8
0
  6
Continuous
 62
     0
370
    18
100
AcDbLine
 10
32.2812864143
 20
-5.1443947594
 30
0.0
 11
33.7730484497
 21
-4.6014377819
 31
0.0
  0
LINE
  5
226
330
20A
100
AcDbEntity
  8
0
  6
Continuous
 62
     0
370
    18
100
AcDbLine
 10
26.3142382723
 20
-7.3162226696
 30
0.0
 11
27.8060003078
 21
-6.773265692
 31
0.0
  0
LINE
  5
227
330
20A
100
AcDbEntity
  8
0
  6
Continuous
 62
     0
370
    18
100
AcDbLine
 10
20.3471901303
 20
-9.4880505797
 30
0.0
 11
21.8389521658
 21
-8.9450936022
 31
0.0
  0
LINE
  5
228
330
20A
100
AcDbEntity
  8
0
  6
Continuous
 62
     0
370
    18
100
AcDbLine
 10
14.3801419883
 20
-11.6598784898
 30
0.0
 11
15.8719040238
 21
-11.1169215123
 31
0.0
  0
LINE
  5
229
330
20A
100
AcDbEntity
  8
0
  6
Continuous
 62
     0
370
    18
100
AcDbLine
 10
8.4130938463
 20
-13.8317063999
 30
0.0
 11
9.9048558818
 21
-13.2887494224
 31
0.0
  0
LINE
  5
22A
330
20A
100
AcDbEntity
  8
0
  6
Continuous
 62
     0
370
    18
100
AcDbLine
 10
2.4460457043
 20
-16.00353431
 30
0.0
 11
3.9378077398
 21
-15.4605773325
 31
0.0
  0
LINE
  5
22B
330
20A
100
AcDbEntity
  8
0
  6
Continuous
 62
     0
370
    18
100
AcDbLine
 10
-3.5210024377
 20
-18.1753622202
 30
0.0
 11
-2.0292404022
 21
-17.6324052426
 31
0.0
  0
LINE
  5
22C
330
20A
100
AcDbEntity
  8
0
  6
Continuous
 62
     0
370
    18
100
AcDbLine
 10
30.3836762983
 20
-9.2138327855
 30
0.0
 11
31.8754383338
 21
-8.670875808
 31
0.0
  0
LINE
  5
22D
330
20A
100
AcDbEntity
  8
0
  6
Continuous
 62
     0
370
    18
100
AcDbLine
 10
24.4166281563
 20
-11.3856606956
 30
0.0
 11
25.9083901918
 21
-10.8427037181
 31
0.0
  0
LINE
  5
22E
330
20A
100
AcDbEntity
  8
0
  6
Continuous
 62
     0
370
    18
100
AcDbLine
 10
18.4495800143
 20
-13.5574886057
 30
0.0
 11
19.9413420498
 21
-13.0145316282
 31
0.0
  0
LINE
  5
22F
330
20A
100
AcDbEntity
  8
0
  6
Continuous
 62
     0
370
    18
100
AcDbLine
 10
12.4825318723
 20
-15.7293165159
 30
0.0
 11
13.9742939078
 21
-15.1863595383
 31
0.0
  0
LINE
  5
230
330
20A
100
AcDbEntity
  8
0
  6
Continuous
 62
     0
370
    18
100
AcDbLine
 10
6.5154837304
 20
-17.901144426
 30
0.0
 11
8.0072457659
 21
-17.3581874484
 31
0.0
  0
LINE
  5
231
330
20A
100
AcDbEntity
  8
0
  6
Continuous
 62
     0
370
    18
100
AcDbLine
 10
0.5484355884
 20
-20.0729723361
 30
0.0
 11
2.0401976239
 21
-19.5300153586
 31
0.0
  0
LINE
  5
232
330
20A
100
AcDbEntity
  8
0
  6
Continuous
 62
     0
370
    18
100
AcDbLine
 10
-5.4186125536
 20
-22.2448002462
 30
0.0
 11
-3.9268505181
 21
-21.7018432687
 31
0.0
  0
LINE
  5
233
330
20A
100
AcDbEntity
  8
0
  6
Continuous
 62
     0
370
    18
100
AcDbLine
 10
28.4860661824
 20
-13.2832708116
 30
0.0
 11
29.9778282179
 21
-12.740313834
 31
0.0
  0
LINE
  5
234
330
20A
100
AcDbEntity
  8
0
  6
Continuous
 62
     0
370
    18
100
AcDbLine
 10
22.5190180404
 20
-15.4550987217
 30
0.0
 11
24.0107800759
 21
-14.9121417441
 31
0.0
  0
LINE
  5
235
330
20A
100
AcDbEntity
  8
0
  6
Continuous
 62
     0
370
    18
100
AcDbLine
 10
16.5519698984
 20
-17.6269266318
 30
0.0
 11
18.0437319339
 21
-17.0839696543
 31
0.0
  0
LINE
  5
236
330
20A
100
AcDbEntity
  8
0
  6
Continuous
 62
     0
370
    18
100
AcDbLine
 10
10.5849217564
 20
-19.7987545419
 30
0.0
 11
12.0766837919
 21
-19.2557975644
 31
0.0
  0
LINE
  5
237
330
20A
100
AcDbEntity
  8
0
  6
Continuous
 62
     0
370
    18
100
AcDbLine
 10
4.6178736144
 20
-21.970582452
 30
0.0
 11
6.1096356499
 21
-21.4276254745
 31
0.0
  0
LINE
  5
238
330
20A
100
AcDbEntity
  8
0
  6
Continuous
 62
     0
370
    18
100
AcDbLine
 10
-1.3491745276
 20
-24.1424103621
 30
0.0
 11
0.1425875079
 21
-23.5994533846
 31
0.0
  0
LINE
  5
239
330
20A
100
AcDbEntity
  8
0
  6
Continuous
 62
     0
370
    18
100
AcDbLine
 10
-6.4884378047
 20
-26.0129492211
 30
0.0
 11
-5.8244606341
 21
-25.7712812947
 31
0.0
  0
LINE
  5
23A
330
20A
100
AcDbEntity
  8
0
  6
Continuous
 62
     0
370
    18
100
AcDbLine
 10
32.5555042084
 20
-15.1808809275
 30
0.0
 11
33.7609495011
 21
-14.7421347219
 31
0.0
  0
LINE
  5
23B
330
20A
100
AcDbEntity
  8
0
  6
Continuous
 62
     0
370
    18
100
AcDbLine
 10
26.5884560664
 20
-17.3527088376
 30
0.0
 11
28.0802181019
 21
-16.8097518601
 31
0.0
  0
LINE
  5
23C
330
20A
100
AcDbEntity
  8
0
  6
Continuous
 62
     0
370
    18
100
AcDbLine
 10
20.6214079245
 20
-19.5245367477
 30
0.0
 11
22.11316996
 21
-18.9815797702
 31
0.0
  0
LINE
  5
23D
330
20A
100
AcDbEntity
  8
0
  6
Continuous
 62
     0
370
    18
100
AcDbLine
 10
14.6543597825
 20
-21.6963646578
 30
0.0
 11
16.146121818
 21
-21.1534076803
 31
0.0
  0
LINE
  5
23E
330
20A
100
AcDbEntity
  8
0
  6
Continuous
 62
     0
370
    18
100
AcDbLine
 10
8.6873116405
 20
-23.868192568
 30
0.0
 11
10.179073676
 21
-23.3252355904
 31
0.0
  0
LINE
  5
23F
330
20A
100
AcDbEntity
  8
0
  6
Continuous
 62
     0
370
    18
100
AcDbLine
 10
2.7202634985
 20
-26.0400204781
 30
0.0
 11
4.212025534
 21
-25.4970635006
 31
0.0
  0
LINE
  5
240
330
20A
100
AcDbEntity
  8
0
  6
Continuous
 62
     0
370
    18
100
AcDbLine
 10
-3.2467846435
 20
-28.2118483882
 30
0.0
 11
-1.755022608
 21
-27.6688914107
 31
0.0
  0
LINE
  5
241
330
20A
100
AcDbEntity
  8
0
  6
Continuous
 62
     0
370
    18
100
AcDbLine
 10
30.6578940925
 20
-19.2503189535
 30
0.0
 11
32.149656128
 21
-18.707361976
 31
0.0
  0
LINE
  5
242
330
20A
100
AcDbEntity
  8
0
  6
Continuous
 62
     0
370
    18
100
AcDbLine
 10
24.6908459505
 20
-21.4221468637
 30
0.0
 11
26.182607986
 21
-20.8791898861
 31
0.0
  0
LINE
  5
243
330
20A
100
AcDbEntity
  8
0
  6
Continuous
 62
     0
370
    18
100
AcDbLine
 10
18.7237978085
 20
-23.5939747738
 30
0.0
 11
20.215559844
 21
-23.0510177963
 31
0.0
  0
LINE
  5
244
330
20A
100
AcDbEntity
  8
0
  6
Continuous
 62
     0
370
    18
100
AcDbLine
 10
12.7567496665
 20
-25.7658026839
 30
0.0
 11
14.248511702
 21
-25.2228457064
 31
0.0
  0
LINE
  5
245
330
20A
100
AcDbEntity
  8
0
  6
Continuous
 62
     0
370
    18
100
AcDbLine
 10
6.7897015245
 20
-27.937630594
 30
0.0
 11
8.28146356
 21
-27.3946736165
 31
0.0
  0
LINE
  5
246
330
20A
100
AcDbEntity
  8
0
  6
Continuous
 62
     0
370
    18
100
AcDbLine
 10
0.8226533825
 20
-30.1094585041
 30
0.0
 11
2.314415418
 21
-29.5665015266
 31
0.0
  0
LINE
  5
247
330
20A
100
AcDbEntity
  8
0
  6
Continuous
 62
     0
370
    18
100
AcDbLine
 10
-5.1443947594
 20
-32.2812864143
 30
0.0
 11
-3.6526327239
 21
-31.7383294367
 31
0.0
  0
LINE
  5
248
330
20A
100
AcDbEntity
  8
0
  6
Continuous
 62
     0
370
    18
100
AcDbLine
 10
28.7602839766
 20
-23.3197569796
 30
0.0
 11
30.2520460121
 21
-22.7768000021
 31
0.0
  0
LINE
  5
249
330
20A
100
AcDbEntity
  8
0
  6
Continuous
 62
     0
370
    18
100
AcDbLine
 10
22.7932358346
 20
-25.4915848897
 30
0.0
 11
24.2849978701
 21
-24.9486279122
 31
0.0
  0
LINE
  5
24A
330
20A
100
AcDbEntity
  8
0
  6
Continuous
 62
     0
370
    18
100
AcDbLine
 10
16.8261876926
 20
-27.6634127998
 30
0.0
 11
18.3179497281
 21
-27.1204558223
 31
0.0
  0
LINE
  5
24B
330
20A
100
AcDbEntity
  8
0
  6
Continuous
 62
     0
370
    18
100
AcDbLine
 10
10.8591395506
 20
-29.83524071
 30
0.0
 11
12.3509015861
 21
-29.2922837324
 31
0.0
  0
LINE
  5
24C
330
20A
100
AcDbEntity
  8
0
  6
Continuous
 62
     0
370
    18
100
AcDbLine
 10
4.8920914086
 20
-32.0070686201
 30
0.0
 11
6.3838534441
 21
-31.4641116425
 31
0.0
  0
LINE
  5
24D
330
20A
100
AcDbEntity
  8
0
  6
Continuous
 62
     0
370
    18
100
AcDbLine
 10
-1.0749567334
 20
-34.1788965302
 30
0.0
 11
0.4168053021
 21
-33.6359395527
 31
0.0
  0
LINE
  5
24E
330
20A
100
AcDbEntity
  8
0
  6
Continuous
 62
     0
370
    18
100
AcDbLine
 10
-7.0084208888
 20
-36.3385008689
 30
0.0
 11
-5.5502428399
 21
-35.8077674628
 31
0.0
  0
LINE
  5
24F
330
20A
100
AcDbEntity
  8
0
  6
Continuous
 62
     0
370
    18
100
AcDbLine
 10
32.8297220026
 20
-25.2173670955
 30
0.0
 11
32.9027523261
 21
-25.1907862316
 31
0.0
  0
LINE
  5
250
330
20A
100
AcDbEntity
  8
0
  6
Continuous
 62
     0
370
    18
100
AcDbLine
 10
26.8626738606
 20
-27.3891950057
 30
0.0
 11
28.3544358961
 21
-26.8462380281
 31
0.0
  0
LINE
  5
251
330
20A
100
AcDbEntity
  8
0
  6
Continuous
 62
     0
370
    18
100
AcDbLine
 10
20.8956257186
 20
-29.5610229158
 30
0.0
 11
22.3873877541
 21
-29.0180659382
 31
0.0
  0
LINE
  5
252
330
20A
100
AcDbEntity
  8
0
  6
Continuous
 62
     0
370
    18
100
AcDbLine
 10
14.9285775766
 20
-31.7328508259
 30
0.0
 11
16.4203396121
 21
-31.1898938484
 31
0.0
  0
LINE
  5
253
330
20A
100
AcDbEntity
  8
0
  6
Continuous
 62
     0
370
    18
100
AcDbLine
 10
8.9615294347
 20
-33.904678736
 30
0.0
 11
10.4532914702
 21
-33.3617217585
 31
0.0
  0
LINE
  5
254
330
20A
100
AcDbEntity
  8
0
  6
Continuous
 62
     0
370
    18
100
AcDbLine
 10
2.9944812927
 20
-36.0765066461
 30
0.0
 11
4.4862433282
 21
-35.5335496686
 31
0.0
  0
LINE
  5
255
330
20A
100
AcDbEntity
  8
0
  6
Continuous
 62
     0
370
    18
100
AcDbLine
 10
-2.9725668493
 20
-38.2483345562
 30
0.0
 11
-1.4808048138
 21
-37.7053775787
 31
0.0
  0
LINE
  5
256
330
20A
100
AcDbEntity
  8
0
  6
Continuous
 62
     0
370
    18
100
AcDbLine
 10
30.9321118867
 20
-29.2868051216
 30
0.0
 11
32.4238739222
 21
-28.7438481441
 31
0.0
  0
LINE
  5
257
330
20A
100
AcDbEntity
  8
0
  6
Continuous
 62
     0
370
    18
100
AcDbLine
 10
24.9650637447
 20
-31.4586330317
 30
0.0
 11
26.4568257802
 21
-30.9156760542
 31
0.0
  0
LINE
  5
258
330
20A
100
AcDbEntity
  8
0
  6
Continuous
 62
     0
370
    18
100
AcDbLine
 10
18.9980156027
 20
-33.6304609418
 30
0.0
 11
20.4897776382
 21
-33.0875039643
 31
0.0
  0
LINE
  5
259
330
20A
100
AcDbEntity
  8
0
  6
Continuous
 62
     0
370
    18
100
AcDbLine
 10
13.0309674607
 20
-35.8022888519
 30
0.0
 11
14.5227294962
 21
-35.2593318744
 31
0.0
  0
LINE
  5
25A
330
20A
100
AcDbEntity
  8
0
  6
Continuous
 62
     0
370
    18
100
AcDbLine
 10
7.0639193187
 20
-37.9741167621
 30
0.0
 11
8.5556813542
 21
-37.4311597845
 31
0.0
  0
LINE
  5
25B
330
20A
100
AcDbEntity
  8
0
  6
Continuous
 62
     0
370
    18
100
AcDbLine
 10
1.0968711767
 20
-40.1459446722
 30
0.0
 11
2.5886332122
 21
-39.6029876946
 31
0.0
  0
LINE
  5
25C
330
20A
100
AcDbEntity
  8
0
  6
Continuous
 62
     0
370
    18
100
AcDbLine
 10
-4.8701769653
 20
-42.3177725823
 30
0.0
 11
-3.3784149298
 21
-41.7748156048
 31
0.0
  0
LINE
  5
25D
330
20A
100
AcDbEntity
  8
0
  6
Continuous
 62
     0
370
    18
100
AcDbLine
 10
29.0345017707
 20
-33.3562431476
 30
0.0
 11
30.5262638062
 21
-32.8132861701
 31
0.0
  0
LINE
  5
25E
330
20A
100
AcDbEntity
  8
0
  6
Continuous
 62
     0
370
    18
100
AcDbLine
 10
23.0674536288
 20
-35.5280710578
 30
0.0
 11
24.5592156643
 21
-34.9851140802
 31
0.0
  0
LINE
  5
25F
330
20A
100
AcDbEntity
  8
0
  6
Continuous
 62
     0
370
    18
100
AcDbLine
 10
17.1004054868
 20
-37.6998989679
 30
0.0
 11
18.5921675223
 21
-37.1569419903
 31
0.0
  0
LINE
  5
260
330
20A
100
AcDbEntity
  8
0
  6
Continuous
 62
     0
370
    18
100
AcDbLine
 10
11.1333573448
 20
-39.871726878
 30
0.0
 11
12.6251193803
 21
-39.3287699005
 31
0.0
  0
LINE
  5
261
330
20A
100
AcDbEntity
  8
0
  6
Continuous
 62
     0
370
    18
100
AcDbLine
 10
5.1663092028
 20
-42.0435547881
 30
0.0
 11
6.6580712383
 21
-41.5005978106
 31
0.0
  0
LINE
  5
262
330
20A
100
AcDbEntity
  8
0
  6
Continuous
 62
     0
370
    18
100
AcDbLine
 10
-0.8007389392
 20
-44.2153826982
 30
0.0
 11
0.6910230963
 21
-43.6724257207
 31
0.0
  0
LINE
  5
263
330
20A
100
AcDbEntity
  8
0
  6
Continuous
 62
     0
370
    18
100
AcDbLine
 10
-6.7677870812
 20
-46.3872106084
 30
0.0
 11
-5.2760250457
 21
-45.8442536308
 31
0.0
  0
LINE
  5
264
330
20A
100
AcDbEntity
  8
0
  6
Continuous
 62
     0
370
    18
100
AcDbLine
 10
27.1368916548
 20
-37.4256811737
 30
0.0
 11
28.6286536903
 21
-36.8827241962
 31
0.0
  0
LINE
  5
265
330
20A
100
AcDbEntity
  8
0
  6
Continuous
 62
     0
370
    18
100
AcDbLine
 10
21.1698435128
 20
-39.5975090838
 30
0.0
 11
22.6616055483
 21
-39.0545521063
 31
0.0
  0
LINE
  5
266
330
20A
100
AcDbEntity
  8
0
  6
Continuous
 62
     0
370
    18
100
AcDbLine
 10
15.2027953708
 20
-41.7693369939
 30
0.0
 11
16.6945574063
 21
-41.2263800164
 31
0.0
  0
LINE
  5
267
330
20A
100
AcDbEntity
  8
0
  6
Continuous
 62
     0
370
    18
100
AcDbLine
 10
9.2357472288
 20
-43.9411649041
 30
0.0
 11
10.7275092643
 21
-43.3982079265
 31
0.0
  0
LINE
  5
268
330
20A
100
AcDbEntity
  8
0
  6
Continuous
 62
     0
370
    18
100
AcDbLine
 10
3.2686990868
 20
-46.1129928142
 30
0.0
 11
4.7604611223
 21
-45.5700358366
 31
0.0
  0
LINE
  5
269
330
20A
100
AcDbEntity
  8
0
  6
Continuous
 62
     0
370
    18
100
AcDbLine
 10
-2.6983490551
 20
-48.2848207243
 30
0.0
 11
-1.2065870196
 21
-47.7418637468
 31
0.0
  0
LINE
  5
26A
330
20A
100
AcDbEntity
  8
0
  6
Continuous
 62
     0
370
    18
100
AcDbLine
 10
-7.7017316676
 20
-50.1059030659
 30
0.0
 11
-7.1736351616
 21
-49.9136916569
 31
0.0
  0
LINE
  5
26B
330
20A
100
AcDbEntity
  8
0
  6
Continuous
 62
     0
370
    18
100
AcDbLine
 10
31.2063296809
 20
-39.3232912896
 30
0.0
 11
31.758489426
 21
-39.1223215778
 31
0.0
  0
LINE
  5
26C
330
20A
100
AcDbEntity
  8
0
  6
Continuous
 62
     0
370
    18
100
AcDbLine
 10
25.2392815389
 20
-41.4951191998
 30
0.0
 11
26.7310435744
 21
-40.9521622222
 31
0.0
  0
LINE
  5
26D
330
20A
100
AcDbEntity
  8
0
  6
Continuous
 62
     0
370
    18
100
AcDbLine
 10
19.2722333969
 20
-43.6669471099
 30
0.0
 11
20.7639954324
 21
-43.1239901323
 31
0.0
  0
LINE
  5
26E
330
20A
100
AcDbEntity
  8
0
  6
Continuous
 62
     0
370
    18
100
AcDbLine
 10
13.3051852549
 20
-45.83877502
 30
0.0
 11
14.7969472904
 21
-45.2958180425
 31
0.0
  0
LINE
  5
26F
330
20A
100
AcDbEntity
  8
0
  6
Continuous
 62
     0
370
    18
100
AcDbLine
 10
7.3381371129
 20
-48.0106029301
 30
0.0
 11
8.8298991484
 21
-47.4676459526
 31
0.0
  0
LINE
  5
270
330
20A
100
AcDbEntity
  8
0
  6
Continuous
 62
     0
370
    18
100
AcDbLine
 10
1.3710889709
 20
-50.1824308402
 30
0.0
 11
2.8628510064
 21
-49.6394738627
 31
0.0
  0
LINE
  5
271
330
20A
100
AcDbEntity
  8
0
  6
Continuous
 62
     0
370
    18
100
AcDbLine
 10
-4.5959591711
 20
-52.3542587503
 30
0.0
 11
-3.1041971356
 21
-51.8113017728
 31
0.0
  0
LINE
  5
272
330
20A
100
AcDbEntity
  8
0
  6
Continuous
 62
     0
370
    18
100
AcDbLine
 10
29.3087195649
 20
-43.3927293157
 30
0.0
 11
30.8004816004
 21
-42.8497723382
 31
0.0
  0
LINE
  5
273
330
20A
100
AcDbEntity
  8
0
  6
Continuous
 62
     0
370
    18
100
AcDbLine
 10
23.3416714229
 20
-45.5645572258
 30
0.0
 11
24.8334334584
 21
-45.0216002483
 31
0.0
  0
LINE
  5
274
330
20A
100
AcDbEntity
  8
0
  6
Continuous
 62
     0
370
    18
100
AcDbLine
 10
17.3746232809
 20
-47.7363851359
 30
0.0
 11
18.8663853164
 21
-47.1934281584
 31
0.0
  0
LINE
  5
275
330
20A
100
AcDbEntity
  8
0
  6
Continuous
 62
     0
370
    18
100
AcDbLine
 10
11.407575139
 20
-49.908213046
 30
0.0
 11
12.8993371745
 21
-49.3652560685
 31
0.0
  0
LINE
  5
276
330
20A
100
AcDbEntity
  8
0
  6
Continuous
 62
     0
370
    18
100
AcDbLine
 10
5.440526997
 20
-52.0800409562
 30
0.0
 11
6.9322890325
 21
-51.5370839786
 31
0.0
  0
LINE
  5
277
330
20A
100
AcDbEntity
  8
0
  6
Continuous
 62
     0
370
    18
100
AcDbLine
 10
-0.526521145
 20
-54.2518688663
 30
0.0
 11
0.9652408905
 21
-53.7089118887
 31
0.0
  0
LINE
  5
278
330
20A
100
AcDbEntity
  8
0
  6
Continuous
 62
     0
370
    18
100
AcDbLine
 10
-6.493569287
 20
-56.4236967764
 30
0.0
 11
-5.0018072515
 21
-55.8807397989
 31
0.0
  0
LINE
  5
279
330
20A
100
AcDbEntity
  8
0
  6
Continuous
 62
     0
370
    18
100
AcDbLine
 10
27.411109449
 20
-47.4621673417
 30
0.0
 11
28.9028714845
 21
-46.9192103642
 31
0.0
  0
LINE
  5
27A
330
20A
100
AcDbEntity
  8
0
  6
Continuous
 62
     0
370
    18
100
AcDbLine
 10
21.444061307
 20
-49.6339952519
 30
0.0
 11
21.7004450058
 21
-49.5406792169
 31
0.0
  0
LINE
  5
27B
330
20A
100
AcDbEntity
  8
0
  6
Continuous
 62
     0
370
    18
100
AcDbLine
 10
15.477013165
 20
-51.805823162
 30
0.0
 11
16.9687752005
 21
-51.2628661844
 31
0.0
  0
LINE
  5
27C
330
20A
100
AcDbEntity
  8
0
  6
Continuous
 62
     0
370
    18
100
AcDbLine
 10
9.509965023
 20
-53.9776510721
 30
0.0
 11
11.0017270585
 21
-53.4346940946
 31
0.0
  0
LINE
  5
27D
330
20A
100
AcDbEntity
  8
0
  6
Continuous
 62
     0
370
    18
100
AcDbLine
 10
3.542916881
 20
-56.1494789822
 30
0.0
 11
5.0346789165
 21
-55.6065220047
 31
0.0
  0
LINE
  5
27E
330
20A
100
AcDbEntity
  8
0
  6
Continuous
 62
     0
370
    18
100
AcDbLine
 10
-2.424131261
 20
-58.3213068923
 30
0.0
 11
-0.9323692255
 21
-57.7783499148
 31
0.0
  0
LINE
  5
27F
330
20A
100
AcDbEntity
  8
0
  6
Continuous
 62
     0
370
    18
100
AcDbLine
 10
-8.2217147517
 20
-60.4314547136
 30
0.0
 11
-6.8994173675
 21
-59.9501778249
 31
0.0
  0
LINE
  5
280
330
20A
100
AcDbEntity
  8
0
  6
Continuous
 62
     0
370
    18
100
AcDbLine
 10
25.5134993331
 20
-51.5316053678
 30
0.0
 11
27.0052613686
 21
-50.9886483903
 31
0.0
  0
LINE
  5
281
330
20A
100
AcDbEntity
  8
0
  6
Continuous
 62
     0
370
    18
100
AcDbLine
 10
19.5464511911
 20
-53.7034332779
 30
0.0
 11
21.0382132266
 21
-53.1604763004
 31
0.0
  0
LINE
  5
282
330
20A
100
AcDbEntity
  8
0
  6
Continuous
 62
     0
370
    18
100
AcDbLine
 10
13.5794030491
 20
-55.875261188
 30
0.0
 11
15.0711650846
 21
-55.3323042105
 31
0.0
  0
LINE
  5
283
330
20A
100
AcDbEntity
  8
0
  6
Continuous
 62
     0
370
    18
100
AcDbLine
 10
7.6123549071
 20
-58.0470890982
 30
0.0
 11
9.1041169426
 21
-57.5041321206
 31
0.0
  0
LINE
  5
284
330
20A
100
AcDbEntity
  8
0
  6
Continuous
 62
     0
370
    18
100
AcDbLine
 10
1.6453067651
 20
-60.2189170083
 30
0.0
 11
3.1370688006
 21
-59.6759600307
 31
0.0
  0
LINE
  5
285
330
20A
100
AcDbEntity
  8
0
  6
Continuous
 62
     0
370
    18
100
AcDbLine
 10
-4.3217413769
 20
-62.3907449184
 30
0.0
 11
-2.8299793414
 21
-61.8477879409
 31
0.0
  0
LINE
  5
286
330
20A
100
AcDbEntity
  8
0
  6
Continuous
 62
     0
370
    18
100
AcDbLine
 10
29.5829373591
 20
-53.4292154837
 30
0.0
 11
30.6142265259
 21
-53.0538569241
 31
0.0
  0
LINE
  5
287
330
20A
100
AcDbEntity
  8
0
  6
Continuous
 62
     0
370
    18
100
AcDbLine
 10
23.6158892171
 20
-55.6010433939
 30
0.0
 11
25.1076512526
 21
-55.0580864163
 31
0.0
  0
LINE
  5
288
330
20A
100
AcDbEntity
  8
0
  6
Continuous
 62
     0
370
    18
100
AcDbLine
 10
17.6488410751
 20
-57.772871304
 30
0.0
 11
19.1406031106
 21
-57.2299143264
 31
0.0
  0
LINE
  5
289
330
20A
100
AcDbEntity
  8
0
  6
Continuous
 62
     0
370
    18
100
AcDbLine
 10
11.6817929331
 20
-59.9446992141
 30
0.0
 11
13.1735549686
 21
-59.4017422366
 31
0.0
  0
LINE
  5
28A
330
20A
100
AcDbEntity
  8
0
  6
Continuous
 62
     0
370
    18
100
AcDbLine
 10
5.7147447911
 20
-62.1165271242
 30
0.0
 11
7.2065068266
 21
-61.5735701467
 31
0.0
  0
LINE
  5
28B
330
20A
100
AcDbEntity
  8
0
  6
Continuous
 62
     0
370
    18
100
AcDbLine
 10
-0.2523033508
 20
-64.2883550343
 30
0.0
 11
1.2394586847
 21
-63.7453980568
 31
0.0
  0
LINE
  5
28C
330
20A
100
AcDbEntity
  8
0
  6
Continuous
 62
     0
370
    18
100
AcDbLine
 10
-6.2193514928
 20
-66.4601829444
 30
0.0
 11
-4.7275894573
 21
-65.9172259669
 31
0.0
  0
LINE
  5
28D
330
20A
100
AcDbEntity
  8
0
  6
Continuous
 62
     0
370
    18
100
AcDbLine
 10
27.6853272432
 20
-57.4986535098
 30
0.0
 11
29.1770892787
 21
-56.9556965323
 31
0.0
  0
LINE
  5
28E
330
20A
100
AcDbEntity
  8
0
  6
Continuous
 62
     0
370
    18
100
AcDbLine
 10
21.7182791012
 20
-59.6704814199
 30
0.0
 11
23.2100411367
 21
-59.1275244424
 31
0.0
  0
LINE
  5
28F
330
20A
100
AcDbEntity
  8
0
  6
Continuous
 62
     0
370
    18
100
AcDbLine
 10
15.7512309592
 20
-61.84230933
 30
0.0
 11
17.2429929947
 21
-61.2993523525
 31
0.0
  0
LINE
  5
290
330
20A
100
AcDbEntity
  8
0
  6
Continuous
 62
     0
370
    18
100
AcDbLine
 10
9.7841828172
 20
-64.0141372401
 30
0.0
 11
11.2759448527
 21
-63.4711802626
 31
0.0
  0
LINE
  5
291
330
20A
100
AcDbEntity
  8
0
  6
Continuous
 62
     0
370
    18
100
AcDbLine
 10
3.8171346752
 20
-66.1859651503
 30
0.0
 11
5.3088967107
 21
-65.6430081727
 31
0.0
  0
LINE
  5
292
330
20A
100
AcDbEntity
  8
0
  6
Continuous
 62
     0
370
    18
100
AcDbLine
 10
-2.1499134668
 20
-68.3577930604
 30
0.0
 11
-0.6581514313
 21
-67.8148360828
 31
0.0
  0
LINE
  5
293
330
20A
100
AcDbEntity
  8
0
  6
Continuous
 62
     0
370
    18
100
AcDbLine
 10
-8.1169616088
 20
-70.5296209705
 30
0.0
 11
-6.6251995733
 21
-69.986663993
 31
0.0
  0
LINE
  5
294
330
20A
100
AcDbEntity
  8
0
  6
Continuous
 62
     0
370
    18
100
AcDbLine
 10
25.7877171272
 20
-61.5680915358
 30
0.0
 11
27.2794791627
 21
-61.0251345583
 31
0.0
  0
LINE
  5
295
330
20A
100
AcDbEntity
  8
0
  6
Continuous
 62
     0
370
    18
100
AcDbLine
 10
19.8206689852
 20
-63.739919446
 30
0.0
 11
21.3124310207
 21
-63.1969624684
 31
0.0
  0
LINE
  5
296
330
20A
100
AcDbEntity
  8
0
  6
Continuous
 62
     0
370
    18
100
AcDbLine
 10
13.8536208433
 20
-65.9117473561
 30
0.0
 11
15.3453828788
 21
-65.3687903785
 31
0.0
  0
LINE
  5
297
330
20A
100
AcDbEntity
  8
0
  6
Continuous
 62
     0
370
    18
100
AcDbLine
 10
7.8865727013
 20
-68.0835752662
 30
0.0
 11
9.3783347368
 21
-67.5406182887
 31
0.0
  0
LINE
  5
298
330
20A
100
AcDbEntity
  8
0
  6
Continuous
 62
     0
370
    18
100
AcDbLine
 10
1.9195245593
 20
-70.2554031763
 30
0.0
 11
3.4112865948
 21
-69.7124461988
 31
0.0
  0
LINE
  5
299
330
20A
100
AcDbEntity
  8
0
  6
Continuous
 62
     0
370
    18
100
AcDbLine
 10
-4.0475235827
 20
-72.4272310864
 30
0.0
 11
-2.5557615472
 21
-71.8842741089
 31
0.0
  0
LINE
  5
29A
330
20A
100
AcDbEntity
  8
0
  6
Continuous
 62
     0
370
    18
100
AcDbLine
 10
-8.9150255305
 20
-74.1988569107
 30
0.0
 11
-8.5228096892
 21
-74.056102019
 31
0.0
  0
LINE
  5
29B
330
20A
100
AcDbEntity
  8
0
  6
Continuous
 62
     0
370
    18
100
AcDbLine
 10
23.8901070113
 20
-65.6375295619
 30
0.0
 11
25.3818690468
 21
-65.0945725844
 31
0.0
  0
LINE
  5
29C
330
20A
100
AcDbEntity
  8
0
  6
Continuous
 62
     0
370
    18
100
AcDbLine
 10
17.9230588693
 20
-67.809357472
 30
0.0
 11
19.4148209048
 21
-67.2664004945
 31
0.0
  0
LINE
  5
29D
330
20A
100
AcDbEntity
  8
0
  6
Continuous
 62
     0
370
    18
100
AcDbLine
 10
11.9560107273
 20
-69.9811853821
 30
0.0
 11
13.4477727628
 21
-69.4382284046
 31
0.0
  0
LINE
  5
29E
330
20A
100
AcDbEntity
  8
0
  6
Continuous
 62
     0
370
    18
100
AcDbLine
 10
5.9889625853
 20
-72.1530132922
 30
0.0
 11
7.4807246208
 21
-71.6100563147
 31
0.0
  0
LINE
  5
29F
330
20A
100
AcDbEntity
  8
0
  6
Continuous
 62
     0
370
    18
100
AcDbLine
 10
0.0219144433
 20
-74.3248412024
 30
0.0
 11
1.5136764788
 21
-73.7818842248
 31
0.0
  0
LINE
  5
2A0
330
20A
100
AcDbEntity
  8
0
  6
Continuous
 62
     0
370
    18
100
AcDbLine
 10
-5.9451336987
 20
-76.4966691125
 30
0.0
 11
-4.4533716632
 21
-75.953712135
 31
0.0
  0
LINE
  5
2A1
330
20A
100
AcDbEntity
  8
0
  6
Continuous
 62
     0
370
    18
100
AcDbLine
 10
27.9595450374
 20
-67.5351396778
 30
0.0
 11
29.4513070728
 21
-66.9921827003
 31
0.0
  0
LINE
  5
2A2
330
20A
100
AcDbEntity
  8
0
  6
Continuous
 62
     0
370
    18
100
AcDbLine
 10
21.9924968954
 20
-69.7069675879
 30
0.0
 11
23.4842589309
 21
-69.1640106104
 31
0.0
  0
LINE
  5
2A3
330
20A
100
AcDbEntity
  8
0
  6
Continuous
 62
     0
370
    18
100
AcDbLine
 10
16.0254487534
 20
-71.8787954981
 30
0.0
 11
17.5172107889
 21
-71.3358385205
 31
0.0
  0
LINE
  5
2A4
330
20A
100
AcDbEntity
  8
0
  6
Continuous
 62
     0
370
    18
100
AcDbLine
 10
10.0584006114
 20
-74.0506234082
 30
0.0
 11
11.5501626469
 21
-73.5076664307
 31
0.0
  0
LINE
  5
2A5
330
20A
100
AcDbEntity
  8
0
  6
Continuous
 62
     0
370
    18
100
AcDbLine
 10
4.0913524694
 20
-76.2224513183
 30
0.0
 11
5.5831145049
 21
-75.6794943408
 31
0.0
  0
LINE
  5
2A6
330
20A
100
AcDbEntity
  8
0
  6
Continuous
 62
     0
370
    18
100
AcDbLine
 10
-1.8756956726
 20
-78.3942792284
 30
0.0
 11
-0.3839336371
 21
-77.8513222509
 31
0.0
  0
LINE
  5
2A7
330
20A
100
AcDbEntity
  8
0
  6
Continuous
 62
     0
370
    18
100
AcDbLine
 10
-7.8427438146
 20
-80.5661071385
 30
0.0
 11
-6.3509817791
 21
-80.023150161
 31
0.0
  0
LINE
  5
2A8
330
20A
100
AcDbEntity
  8
0
  6
Continuous
 62
     0
370
    18
100
AcDbLine
 10
26.0619349214
 20
-71.6045777039
 30
0.0
 11
27.5536969569
 21
-71.0616207264
 31
0.0
  0
LINE
  5
2A9
330
20A
100
AcDbEntity
  8
0
  6
Continuous
 62
     0
370
    18
100
AcDbLine
 10
20.0948867794
 20
-73.776405614
 30
0.0
 11
21.5866488149
 21
-73.2334486365
 31
0.0
  0
LINE
  5
2AA
330
20A
100
AcDbEntity
  8
0
  6
Continuous
 62
     0
370
    18
100
AcDbLine
 10
14.1278386374
 20
-75.9482335241
 30
0.0
 11
15.6196006729
 21
-75.4052765466
 31
0.0
  0
LINE
  5
2AB
330
20A
100
AcDbEntity
  8
0
  6
Continuous
 62
     0
370
    18
100
AcDbLine
 10
8.1607904954
 20
-78.1200614342
 30
0.0
 11
9.6525525309
 21
-77.5771044567
 31
0.0
  0
LINE
  5
2AC
330
20A
100
AcDbEntity
  8
0
  6
Continuous
 62
     0
370
    18
100
AcDbLine
 10
2.1937423535
 20
-80.2918893444
 30
0.0
 11
3.685504389
 21
-79.7489323668
 31
0.0
  0
LINE
  5
2AD
330
20A
100
AcDbEntity
  8
0
  6
Continuous
 62
     0
370
    18
100
AcDbLine
 10
-3.7733057885
 20
-82.4637172545
 30
0.0
 11
-2.281543753
 21
-81.9207602769
 31
0.0
  0
LINE
  5
2AE
330
20A
100
AcDbEntity
  8
0
  6
Continuous
 62
     0
370
    18
100
AcDbLine
 10
-9.4350086146
 20
-84.5244085584
 30
0.0
 11
-8.248591895
 21
-84.0925881871
 31
0.0
  0
LINE
  5
2AF
330
20A
100
AcDbEntity
  8
0
  6
Continuous
 62
     0
370
    18
100
AcDbLine
 10
24.1643248055
 20
-75.6740157299
 30
0.0
 11
25.656086841
 21
-75.1310587524
 31
0.0
  0
LINE
  5
2B0
330
20A
100
AcDbEntity
  8
0
  6
Continuous
 62
     0
370
    18
100
AcDbLine
 10
18.1972766635
 20
-77.8458436401
 30
0.0
 11
19.689038699
 21
-77.3028866625
 31
0.0
  0
LINE
  5
2B1
330
20A
100
AcDbEntity
  8
0
  6
Continuous
 62
     0
370
    18
100
AcDbLine
 10
12.2302285215
 20
-80.0176715502
 30
0.0
 11
13.721990557
 21
-79.4747145726
 31
0.0
  0
LINE
  5
2B2
330
20A
100
AcDbEntity
  8
0
  6
Continuous
 62
     0
370
    18
100
AcDbLine
 10
6.2631803795
 20
-82.1894994603
 30
0.0
 11
7.754942415
 21
-81.6465424828
 31
0.0
  0
LINE
  5
2B3
330
20A
100
AcDbEntity
  8
0
  6
Continuous
 62
     0
370
    18
100
AcDbLine
 10
0.2961322375
 20
-84.3613273704
 30
0.0
 11
1.787894273
 21
-83.8183703929
 31
0.0
  0
LINE
  5
2B4
330
20A
100
AcDbEntity
  8
0
  6
Continuous
 62
     0
370
    18
100
AcDbLine
 10
-5.6709159045
 20
-86.5331552805
 30
0.0
 11
-4.179153869
 21
-85.990198303
 31
0.0
  0
LINE
  5
2B5
330
20A
100
AcDbEntity
  8
0
  6
Continuous
 62
     0
370
    18
100
AcDbLine
 10
28.2337628315
 20
-77.5716258459
 30
0.0
 11
28.6117664508
 21
-77.43404378
 31
0.0
  0
LINE
  5
2B6
330
20A
100
AcDbEntity
  8
0
  6
Continuous
 62
     0
370
    18
100
AcDbLine
 10
22.2667146895
 20
-79.743453756
 30
0.0
 11
23.758476725
 21
-79.2004967785
 31
0.0
  0
LINE
  5
2B7
330
20A
100
AcDbEntity
  8
0
  6
Continuous
 62
     0
370
    18
100
AcDbLine
 10
16.2996665476
 20
-81.9152816661
 30
0.0
 11
17.7914285831
 21
-81.3723246886
 31
0.0
  0
LINE
  5
2B8
330
20A
100
AcDbEntity
  8
0
  6
Continuous
 62
     0
370
    18
100
AcDbLine
 10
10.3326184056
 20
-84.0871095762
 30
0.0
 11
11.8243804411
 21
-83.5441525987
 31
0.0
  0
LINE
  5
2B9
330
20A
100
AcDbEntity
  8
0
  6
Continuous
 62
     0
370
    18
100
AcDbLine
 10
4.3655702636
 20
-86.2589374863
 30
0.0
 11
5.8573322991
 21
-85.7159805088
 31
0.0
  0
LINE
  5
2BA
330
20A
100
AcDbEntity
  8
0
  6
Continuous
 62
     0
370
    18
100
AcDbLine
 10
-1.6014778784
 20
-88.4307653965
 30
0.0
 11
-0.1097158429
 21
-87.8878084189
 31
0.0
  0
LINE
  5
2BB
330
20A
100
AcDbEntity
  8
0
  6
Continuous
 62
     0
370
    18
100
AcDbLine
 10
-7.5685260204
 20
-90.6025933066
 30
0.0
 11
-6.0767639849
 21
-90.0596363291
 31
0.0
  0
LINE
  5
2BC
330
20A
100
AcDbEntity
  8
0
  6
Continuous
 62
     0
370
    18
100
AcDbLine
 10
26.3361527156
 20
-81.6410638719
 30
0.0
 11
27.8279147511
 21
-81.0981068944
 31
0.0
  0
LINE
  5
2BD
330
20A
100
AcDbEntity
  8
0
  6
Continuous
 62
     0
370
    18
100
AcDbLine
 10
20.3691045736
 20
-83.812891782
 30
0.0
 11
21.8608666091
 21
-83.2699348045
 31
0.0
  0
LINE
  5
2BE
330
20A
100
AcDbEntity
  8
0
  6
Continuous
 62
     0
370
    18
100
AcDbLine
 10
14.4020564316
 20
-85.9847196922
 30
0.0
 11
15.8938184671
 21
-85.4417627146
 31
0.0
  0
LINE
  5
2BF
330
20A
100
AcDbEntity
  8
0
  6
Continuous
 62
     0
370
    18
100
AcDbLine
 10
8.4350082896
 20
-88.1565476023
 30
0.0
 11
9.9267703251
 21
-87.6135906248
 31
0.0
  0
LINE
  5
2C0
330
20A
100
AcDbEntity
  8
0
  6
Continuous
 62
     0
370
    18
100
AcDbLine
 10
2.4679601476
 20
-90.3283755124
 30
0.0
 11
3.9597221831
 21
-89.7854185349
 31
0.0
  0
LINE
  5
2C1
330
20A
100
AcDbEntity
  8
0
  6
Continuous
 62
     0
370
    18
100
AcDbLine
 10
-3.4990879944
 20
-92.5002034225
 30
0.0
 11
-2.0073259589
 21
-91.957246445
 31
0.0
  0
LINE
  5
2C2
330
20A
100
AcDbEntity
  8
0
  6
Continuous
 62
     0
370
    18
100
AcDbLine
 10
-9.4661361363
 20
-94.6720313326
 30
0.0
 11
-7.9743741008
 21
-94.1290743551
 31
0.0
  0
LINE
  5
2C3
330
20A
100
AcDbEntity
  8
0
  6
Continuous
 62
     0
370
    18
100
AcDbLine
 10
-10.1283193934
 20
-98.2918107554
 30
0.0
 11
-9.8719842168
 21
-98.1985123812
 31
0.0
  0
LINE
  5
2C4
330
20A
100
AcDbEntity
  8
0
  6
Continuous
 62
     0
370
    18
100
AcDbLine
 10
24.4385425997
 20
-85.710501898
 30
0.0
 11
25.9303046352
 21
-85.1675449205
 31
0.0
  0
LINE
  5
2C5
330
20A
100
AcDbEntity
  8
0
  6
Continuous
 62
     0
370
    18
100
AcDbLine
 10
18.4714944577
 20
-87.8823298081
 30
0.0
 11
19.9632564932
 21
-87.3393728306
 31
0.0
  0
LINE
  5
2C6
330
20A
100
AcDbEntity
  8
0
  6
Continuous
 62
     0
370
    18
100
AcDbLine
 10
12.5044463157
 20
-90.0541577182
 30
0.0
 11
13.9962083512
 21
-89.5112007407
 31
0.0
  0
LINE
  5
2C7
330
20A
100
AcDbEntity
  8
0
  6
Continuous
 62
     0
370
    18
100
AcDbLine
 10
6.5373981737
 20
-92.2259856283
 30
0.0
 11
8.0291602092
 21
-91.6830286508
 31
0.0
  0
LINE
  5
2C8
330
20A
100
AcDbEntity
  8
0
  6
Continuous
 62
     0
370
    18
100
AcDbLine
 10
0.5703500317
 20
-94.3978135385
 30
0.0
 11
2.0621120672
 21
-93.8548565609
 31
0.0
  0
LINE
  5
2C9
330
20A
100
AcDbEntity
  8
0
  6
Continuous
 62
     0
370
    18
100
AcDbLine
 10
22.5409324837
 20
-89.779939924
 30
0.0
 11
24.0326945192
 21
-89.2369829465
 31
0.0
  0
LINE
  5
2CA
330
20A
100
AcDbEntity
  8
0
  6
Continuous
 62
     0
370
    18
100
AcDbLine
 10
16.5738843417
 20
-91.9517678342
 30
0.0
 11
18.0656463772
 21
-91.4088108566
 31
0.0
  0
LINE
  5
2CB
330
20A
100
AcDbEntity
  8
0
  6
Continuous
 62
     0
370
    18
100
AcDbLine
 10
10.6068361997
 20
-94.1235957443
 30
0.0
 11
12.0985982352
 21
-93.5806387667
 31
0.0
  0
LINE
  5
2CC
330
20A
100
AcDbEntity
  8
0
  6
Continuous
 62
     0
370
    18
100
AcDbLine
 10
4.6397880578
 20
-96.2954236544
 30
0.0
 11
6.1315500933
 21
-95.7524666769
 31
0.0
  0
LINE
  5
2CD
330
20A
100
AcDbEntity
  8
0
  6
Continuous
 62
     0
370
    18
100
AcDbLine
 10
-9.1919183422
 20
-104.7085175007
 30
0.0
 11
-7.7001563067
 21
-104.1655605232
 31
0.0
  0
LINE
  5
2CE
330
20A
100
AcDbEntity
  8
0
  6
Continuous
 62
     0
370
    18
100
AcDbLine
 10
26.6103705098
 20
-91.67755004
 30
0.0
 11
27.4675035508
 21
-91.3655791262
 31
0.0
  0
LINE
  5
2CF
330
20A
100
AcDbEntity
  8
0
  6
Continuous
 62
     0
370
    18
100
AcDbLine
 10
20.6433223678
 20
-93.8493779501
 30
0.0
 11
22.1350844033
 21
-93.3064209726
 31
0.0
  0
LINE
  5
2D0
330
20A
100
AcDbEntity
  8
0
  6
Continuous
 62
     0
370
    18
100
AcDbLine
 10
14.6762742258
 20
-96.0212058602
 30
0.0
 11
16.1680362613
 21
-95.4782488827
 31
0.0
  0
LINE
  5
2D1
330
20A
100
AcDbEntity
  8
0
  6
Continuous
 62
     0
370
    18
100
AcDbLine
 10
8.7092260838
 20
-98.1930337703
 30
0.0
 11
10.2009881193
 21
-97.6500767928
 31
0.0
  0
LINE
  5
2D2
330
20A
100
AcDbEntity
  8
0
  6
Continuous
 62
     0
370
    18
100
AcDbLine
 10
3.9570012524
 20
-99.9227021555
 30
0.0
 11
4.2339399773
 21
-99.8219047029
 31
0.0
  0
LINE
  5
2D3
330
20A
100
AcDbEntity
  8
0
  6
Continuous
 62
     0
370
    18
100
AcDbLine
 10
24.7127603938
 20
-95.746988066
 30
0.0
 11
26.2045224293
 21
-95.2040310885
 31
0.0
  0
LINE
  5
2D4
330
20A
100
AcDbEntity
  8
0
  6
Continuous
 62
     0
370
    18
100
AcDbLine
 10
18.7457122519
 20
-97.9188159761
 30
0.0
 11
20.2374742874
 21
-97.3758589986
 31
0.0
  0
LINE
  5
2D5
330
20A
100
AcDbEntity
  8
0
  6
Continuous
 62
     0
370
    18
100
AcDbLine
 10
12.7786641099
 20
-100.0906438863
 30
0.0
 11
14.2704261454
 21
-99.5476869087
 31
0.0
  0
LINE
  5
2D6
330
20A
100
AcDbEntity
  8
0
  6
Continuous
 62
     0
370
    18
100
AcDbLine
 10
6.8116159679
 20
-102.2624717964
 30
0.0
 11
8.3033780034
 21
-101.7195148189
 31
0.0
  0
LINE
  5
2D7
330
20A
100
AcDbEntity
  8
0
  6
Continuous
 62
     0
370
    18
100
AcDbLine
 10
0.8445678259
 20
-104.4342997065
 30
0.0
 11
2.3363298614
 21
-103.891342729
 31
0.0
  0
LINE
  5
2D8
330
20A
100
AcDbEntity
  8
0
  6
Continuous
 62
     0
370
    18
100
AcDbLine
 10
22.8151502779
 20
-99.8164260921
 30
0.0
 11
24.3069123134
 21
-99.2734691146
 31
0.0
  0
LINE
  5
2D9
330
20A
100
AcDbEntity
  8
0
  6
Continuous
 62
     0
370
    18
100
AcDbLine
 10
16.8481021359
 20
-101.9882540022
 30
0.0
 11
17.5744916697
 21
-101.7238698334
 31
0.0
  0
LINE
  5
2DA
330
20A
100
AcDbEntity
  8
0
  6
Continuous
 62
     0
370
    18
100
AcDbLine
 10
10.8810539939
 20
-104.1600819123
 30
0.0
 11
12.3728160294
 21
-103.6171249348
 31
0.0
  0
LINE
  5
2DB
330
20A
100
AcDbEntity
  8
0
  6
Continuous
 62
     0
370
    18
100
AcDbLine
 10
5.8144707128
 20
-106.0041674161
 30
0.0
 11
6.4057678874
 21
-105.7889528449
 31
0.0
  0
LINE
  5
2DC
330
20A
100
AcDbEntity
  8
0
  6
Continuous
 62
     0
370
    18
100
AcDbLine
 10
20.917540162
 20
-103.8858641181
 30
0.0
 11
22.4093021975
 21
-103.3429071406
 31
0.0
  0
LINE
  5
2DD
330
20A
100
AcDbEntity
  8
0
  6
Continuous
 62
     0
370
    18
100
AcDbLine
 10
15.0975496833
 20
-106.0041674161
 30
0.0
 11
16.4422540555
 21
-105.5147350507
 31
0.0
  0
LINE
  5
2DE
330
20A
100
AcDbEntity
  8
0
  6
Continuous
 62
     0
370
    18
100
AcDbLine
 10
24.986978188
 20
-105.7834742341
 30
0.0
 11
26.3232406507
 21
-105.2971144725
 31
0.0
  0
LINE
  5
2DF
330
20A
100
AcDbEntity
  8
0
  6
Continuous
 62
     0
370
    18
100
AcDbLine
 10
-8.1745588356
 20
-105.1829200297
 30
0.0
 11
-8.7175158132
 21
-103.6911579942
 31
0.0
  0
LINE
  5
2E0
330
20A
100
AcDbEntity
  8
0
  6
Continuous
 62
     0
370
    18
100
AcDbLine
 10
-4.4968848044
 20
-106.0041674161
 30
0.0
 11
-4.6480777871
 21
-105.5887681101
 31
0.0
  0
LINE
  5
2E1
330
20A
100
AcDbEntity
  8
0
  6
Continuous
 62
     0
370
    18
100
AcDbLine
 10
-8.4487766298
 20
-95.1464338616
 30
0.0
 11
-8.9917336074
 21
-93.6546718261
 31
0.0
  0
LINE
  5
2E2
330
20A
100
AcDbEntity
  8
0
  6
Continuous
 62
     0
370
    18
100
AcDbLine
 10
-8.722994424
 20
-85.1099476936
 30
0.0
 11
-9.2659514015
 21
-83.6181856581
 31
0.0
  0
LINE
  5
2E3
330
20A
100
AcDbEntity
  8
0
  6
Continuous
 62
     0
370
    18
100
AcDbLine
 10
-6.5511665139
 20
-91.0769958356
 30
0.0
 11
-7.0941234914
 21
-89.5852338001
 31
0.0
  0
LINE
  5
2E4
330
20A
100
AcDbEntity
  8
0
  6
Continuous
 62
     0
370
    18
100
AcDbLine
 10
1.8619273324
 20
-104.9087022355
 30
0.0
 11
1.3189703549
 21
-103.4169402
 31
0.0
  0
LINE
  5
2E5
330
20A
100
AcDbEntity
  8
0
  6
Continuous
 62
     0
370
    18
100
AcDbLine
 10
-6.8253843081
 20
-81.0405096675
 30
0.0
 11
-7.3683412856
 21
-79.548747632
 31
0.0
  0
LINE
  5
2E6
330
20A
100
AcDbEntity
  8
0
  6
Continuous
 62
     0
370
    18
100
AcDbLine
 10
-4.653556398
 20
-87.0075578095
 30
0.0
 11
-5.1965133755
 21
-85.515795774
 31
0.0
  0
LINE
  5
2E7
330
20A
100
AcDbEntity
  8
0
  6
Continuous
 62
     0
370
    18
100
AcDbLine
 10
-2.4817284878
 20
-92.9746059515
 30
0.0
 11
-3.0246854654
 21
-91.482843916
 31
0.0
  0
LINE
  5
2E8
330
20A
100
AcDbEntity
  8
0
  6
Continuous
 62
     0
370
    18
100
AcDbLine
 10
-7.0996021023
 20
-71.0040234995
 30
0.0
 11
-7.6425590798
 21
-69.512261464
 31
0.0
  0
LINE
  5
2E9
330
20A
100
AcDbEntity
  8
0
  6
Continuous
 62
     0
370
    18
100
AcDbLine
 10
-4.9277741921
 20
-76.9710716415
 30
0.0
 11
-5.4707311697
 21
-75.479309606
 31
0.0
  0
LINE
  5
2EA
330
20A
100
AcDbEntity
  8
0
  6
Continuous
 62
     0
370
    18
100
AcDbLine
 10
-2.755946282
 20
-82.9381197835
 30
0.0
 11
-3.2989032596
 21
-81.446357748
 31
0.0
  0
LINE
  5
2EB
330
20A
100
AcDbEntity
  8
0
  6
Continuous
 62
     0
370
    18
100
AcDbLine
 10
-0.5841183719
 20
-88.9051679255
 30
0.0
 11
-1.1270753494
 21
-87.41340589
 31
0.0
  0
LINE
  5
2EC
330
20A
100
AcDbEntity
  8
0
  6
Continuous
 62
     0
370
    18
100
AcDbLine
 10
1.5877095382
 20
-94.8722160674
 30
0.0
 11
1.0447525607
 21
-93.3804540319
 31
0.0
  0
LINE
  5
2ED
330
20A
100
AcDbEntity
  8
0
  6
Continuous
 62
     0
370
    18
100
AcDbLine
 10
3.4143407334
 20
-99.8908440299
 30
0.0
 11
3.2165804708
 21
-99.3475021739
 31
0.0
  0
LINE
  5
2EE
330
20A
100
AcDbEntity
  8
0
  6
Continuous
 62
     0
370
    18
100
AcDbLine
 10
5.6394084784
 20
-106.0041674161
 30
0.0
 11
5.3884083809
 21
-105.3145503159
 31
0.0
  0
LINE
  5
2EF
330
20A
100
AcDbEntity
  8
0
  6
Continuous
 62
     0
370
    18
100
AcDbLine
 10
-7.3738198964
 20
-60.9675373314
 30
0.0
 11
-7.916776874
 21
-59.4757752959
 31
0.0
  0
LINE
  5
2F0
330
20A
100
AcDbEntity
  8
0
  6
Continuous
 62
     0
370
    18
100
AcDbLine
 10
-5.2019919863
 20
-66.9345854734
 30
0.0
 11
-5.7449489639
 21
-65.4428234379
 31
0.0
  0
LINE
  5
2F1
330
20A
100
AcDbEntity
  8
0
  6
Continuous
 62
     0
370
    18
100
AcDbLine
 10
-3.0301640762
 20
-72.9016336154
 30
0.0
 11
-3.5731210537
 21
-71.4098715799
 31
0.0
  0
LINE
  5
2F2
330
20A
100
AcDbEntity
  8
0
  6
Continuous
 62
     0
370
    18
100
AcDbLine
 10
-0.8583361661
 20
-78.8686817574
 30
0.0
 11
-1.4012931436
 21
-77.3769197219
 31
0.0
  0
LINE
  5
2F3
330
20A
100
AcDbEntity
  8
0
  6
Continuous
 62
     0
370
    18
100
AcDbLine
 10
1.313491744
 20
-84.8357298994
 30
0.0
 11
0.7705347665
 21
-83.3439678639
 31
0.0
  0
LINE
  5
2F4
330
20A
100
AcDbEntity
  8
0
  6
Continuous
 62
     0
370
    18
100
AcDbLine
 10
3.4853196541
 20
-90.8027780414
 30
0.0
 11
2.9423626766
 21
-89.3110160059
 31
0.0
  0
LINE
  5
2F5
330
20A
100
AcDbEntity
  8
0
  6
Continuous
 62
     0
370
    18
100
AcDbLine
 10
5.6571475643
 20
-96.7698261834
 30
0.0
 11
5.1141905867
 21
-95.2780641479
 31
0.0
  0
LINE
  5
2F6
330
20A
100
AcDbEntity
  8
0
  6
Continuous
 62
     0
370
    18
100
AcDbLine
 10
7.8289754744
 20
-102.7368743254
 30
0.0
 11
7.2860184969
 21
-101.2451122899
 31
0.0
  0
LINE
  5
2F7
330
20A
100
AcDbEntity
  8
0
  6
Continuous
 62
     0
370
    18
100
AcDbLine
 10
-7.6480376906
 20
-50.9310511634
 30
0.0
 11
-7.7317085091
 21
-50.7011674788
 31
0.0
  0
LINE
  5
2F8
330
20A
100
AcDbEntity
  8
0
  6
Continuous
 62
     0
370
    18
100
AcDbLine
 10
-5.4762097805
 20
-56.8980993054
 30
0.0
 11
-6.019166758
 21
-55.4063372699
 31
0.0
  0
LINE
  5
2F9
330
20A
100
AcDbEntity
  8
0
  6
Continuous
 62
     0
370
    18
100
AcDbLine
 10
-3.3043818704
 20
-62.8651474474
 30
0.0
 11
-3.8473388479
 21
-61.3733854119
 31
0.0
  0
LINE
  5
2FA
330
20A
100
AcDbEntity
  8
0
  6
Continuous
 62
     0
370
    18
100
AcDbLine
 10
-1.1325539603
 20
-68.8321955894
 30
0.0
 11
-1.6755109378
 21
-67.3404335539
 31
0.0
  0
LINE
  5
2FB
330
20A
100
AcDbEntity
  8
0
  6
Continuous
 62
     0
370
    18
100
AcDbLine
 10
1.0392739498
 20
-74.7992437314
 30
0.0
 11
0.4963169723
 21
-73.3074816959
 31
0.0
  0
LINE
  5
2FC
330
20A
100
AcDbEntity
  8
0
  6
Continuous
 62
     0
370
    18
100
AcDbLine
 10
3.21110186
 20
-80.7662918733
 30
0.0
 11
2.6681448824
 21
-79.2745298378
 31
0.0
  0
LINE
  5
2FD
330
20A
100
AcDbEntity
  8
0
  6
Continuous
 62
     0
370
    18
100
AcDbLine
 10
5.3829297701
 20
-86.7333400153
 30
0.0
 11
4.8399727926
 21
-85.2415779798
 31
0.0
  0
LINE
  5
2FE
330
20A
100
AcDbEntity
  8
0
  6
Continuous
 62
     0
370
    18
100
AcDbLine
 10
7.5547576802
 20
-92.7003881573
 30
0.0
 11
7.0118007027
 21
-91.2086261218
 31
0.0
  0
LINE
  5
2FF
330
20A
100
AcDbEntity
  8
0
  6
Continuous
 62
     0
370
    18
100
AcDbLine
 10
9.7265855903
 20
-98.6674362993
 30
0.0
 11
9.1836286128
 21
-97.1756742638
 31
0.0
  0
LINE
  5
300
330
20A
100
AcDbEntity
  8
0
  6
Continuous
 62
     0
370
    18
100
AcDbLine
 10
11.8984135004
 20
-104.6344844413
 30
0.0
 11
11.3554565229
 21
-103.1427224058
 31
0.0
  0
LINE
  5
301
330
20A
100
AcDbEntity
  8
0
  6
Continuous
 62
     0
370
    18
100
AcDbLine
 10
-5.7504275747
 20
-46.8616131373
 30
0.0
 11
-6.2933845522
 21
-45.3698511018
 31
0.0
  0
LINE
  5
302
330
20A
100
AcDbEntity
  8
0
  6
Continuous
 62
     0
370
    18
100
AcDbLine
 10
-3.5785996646
 20
-52.8286612793
 30
0.0
 11
-4.1215566421
 21
-51.3368992438
 31
0.0
  0
LINE
  5
303
330
20A
100
AcDbEntity
  8
0
  6
Continuous
 62
     0
370
    18
100
AcDbLine
 10
-1.4067717545
 20
-58.7957094213
 30
0.0
 11
-1.949728732
 21
-57.3039473858
 31
0.0
  0
LINE
  5
304
330
20A
100
AcDbEntity
  8
0
  6
Continuous
 62
     0
370
    18
100
AcDbLine
 10
0.7650561557
 20
-64.7627575633
 30
0.0
 11
0.2220991781
 21
-63.2709955278
 31
0.0
  0
LINE
  5
305
330
20A
100
AcDbEntity
  8
0
  6
Continuous
 62
     0
370
    18
100
AcDbLine
 10
2.9368840658
 20
-70.7298057053
 30
0.0
 11
2.3939270883
 21
-69.2380436698
 31
0.0
  0
LINE
  5
306
330
20A
100
AcDbEntity
  8
0
  6
Continuous
 62
     0
370
    18
100
AcDbLine
 10
5.1087119759
 20
-76.6968538473
 30
0.0
 11
4.5657549984
 21
-75.2050918118
 31
0.0
  0
LINE
  5
307
330
20A
100
AcDbEntity
  8
0
  6
Continuous
 62
     0
370
    18
100
AcDbLine
 10
7.280539886
 20
-82.6639019893
 30
0.0
 11
6.7375829085
 21
-81.1721399538
 31
0.0
  0
LINE
  5
308
330
20A
100
AcDbEntity
  8
0
  6
Continuous
 62
     0
370
    18
100
AcDbLine
 10
9.4523677961
 20
-88.6309501313
 30
0.0
 11
8.9094108186
 21
-87.1391880958
 31
0.0
  0
LINE
  5
309
330
20A
100
AcDbEntity
  8
0
  6
Continuous
 62
     0
370
    18
100
AcDbLine
 10
11.6241957063
 20
-94.5979982733
 30
0.0
 11
11.0812387287
 21
-93.1062362378
 31
0.0
  0
LINE
  5
30A
330
20A
100
AcDbEntity
  8
0
  6
Continuous
 62
     0
370
    18
100
AcDbLine
 10
13.7719523984
 20
-100.4989112873
 30
0.0
 11
13.2530666388
 21
-99.0732843798
 31
0.0
  0
LINE
  5
30B
330
20A
100
AcDbEntity
  8
0
  6
Continuous
 62
     0
370
    18
100
AcDbLine
 10
15.7757017613
 20
-106.0041674161
 30
0.0
 11
15.424894549
 21
-105.0403325217
 31
0.0
  0
LINE
  5
30C
330
20A
100
AcDbEntity
  8
0
  6
Continuous
 62
     0
370
    18
100
AcDbLine
 10
-6.0246453689
 20
-36.8251269693
 30
0.0
 11
-6.5676023464
 21
-35.3333649338
 31
0.0
  0
LINE
  5
30D
330
20A
100
AcDbEntity
  8
0
  6
Continuous
 62
     0
370
    18
100
AcDbLine
 10
-3.8528174587
 20
-42.7921751113
 30
0.0
 11
-4.3957744363
 21
-41.3004130758
 31
0.0
  0
LINE
  5
30E
330
20A
100
AcDbEntity
  8
0
  6
Continuous
 62
     0
370
    18
100
AcDbLine
 10
-1.6809895486
 20
-48.7592232533
 30
0.0
 11
-2.2239465262
 21
-47.2674612178
 31
0.0
  0
LINE
  5
30F
330
20A
100
AcDbEntity
  8
0
  6
Continuous
 62
     0
370
    18
100
AcDbLine
 10
0.4908383615
 20
-54.7262713953
 30
0.0
 11
-0.052118616
 21
-53.2345093598
 31
0.0
  0
LINE
  5
310
330
20A
100
AcDbEntity
  8
0
  6
Continuous
 62
     0
370
    18
100
AcDbLine
 10
2.6626662716
 20
-60.6933195373
 30
0.0
 11
2.1197092941
 21
-59.2015575018
 31
0.0
  0
LINE
  5
311
330
20A
100
AcDbEntity
  8
0
  6
Continuous
 62
     0
370
    18
100
AcDbLine
 10
4.8344941817
 20
-66.6603676792
 30
0.0
 11
4.2915372042
 21
-65.1686056437
 31
0.0
  0
LINE
  5
312
330
20A
100
AcDbEntity
  8
0
  6
Continuous
 62
     0
370
    18
100
AcDbLine
 10
7.0063220918
 20
-72.6274158212
 30
0.0
 11
6.4633651143
 21
-71.1356537857
 31
0.0
  0
LINE
  5
313
330
20A
100
AcDbEntity
  8
0
  6
Continuous
 62
     0
370
    18
100
AcDbLine
 10
9.178150002
 20
-78.5944639632
 30
0.0
 11
8.6351930244
 21
-77.1027019277
 31
0.0
  0
LINE
  5
314
330
20A
100
AcDbEntity
  8
0
  6
Continuous
 62
     0
370
    18
100
AcDbLine
 10
11.3499779121
 20
-84.5615121052
 30
0.0
 11
10.8070209345
 21
-83.0697500697
 31
0.0
  0
LINE
  5
315
330
20A
100
AcDbEntity
  8
0
  6
Continuous
 62
     0
370
    18
100
AcDbLine
 10
13.5218058222
 20
-90.5285602472
 30
0.0
 11
12.9788488447
 21
-89.0367982117
 31
0.0
  0
LINE
  5
316
330
20A
100
AcDbEntity
  8
0
  6
Continuous
 62
     0
370
    18
100
AcDbLine
 10
15.6936337323
 20
-96.4956083892
 30
0.0
 11
15.1506767548
 21
-95.0038463537
 31
0.0
  0
LINE
  5
317
330
20A
100
AcDbEntity
  8
0
  6
Continuous
 62
     0
370
    18
100
AcDbLine
 10
17.8654616424
 20
-102.4626565312
 30
0.0
 11
17.5970472356
 21
-101.7251940095
 31
0.0
  0
LINE
  5
318
330
20A
100
AcDbEntity
  8
0
  6
Continuous
 62
     0
370
    18
100
AcDbLine
 10
-6.298863163
 20
-26.7886408012
 30
0.0
 11
-6.4997114193
 21
-26.2368147525
 31
0.0
  0
LINE
  5
319
330
20A
100
AcDbEntity
  8
0
  6
Continuous
 62
     0
370
    18
100
AcDbLine
 10
-4.1270352529
 20
-32.7556889432
 30
0.0
 11
-4.6699922305
 21
-31.2639269077
 31
0.0
  0
LINE
  5
31A
330
20A
100
AcDbEntity
  8
0
  6
Continuous
 62
     0
370
    18
100
AcDbLine
 10
-1.9552073428
 20
-38.7227370852
 30
0.0
 11
-2.4981643203
 21
-37.2309750497
 31
0.0
  0
LINE
  5
31B
330
20A
100
AcDbEntity
  8
0
  6
Continuous
 62
     0
370
    18
100
AcDbLine
 10
0.2166205673
 20
-44.6897852272
 30
0.0
 11
-0.3263364102
 21
-43.1980231917
 31
0.0
  0
LINE
  5
31C
330
20A
100
AcDbEntity
  8
0
  6
Continuous
 62
     0
370
    18
100
AcDbLine
 10
2.3884484774
 20
-50.6568333692
 30
0.0
 11
1.8454914999
 21
-49.1650713337
 31
0.0
  0
LINE
  5
31D
330
20A
100
AcDbEntity
  8
0
  6
Continuous
 62
     0
370
    18
100
AcDbLine
 10
4.5602763875
 20
-56.6238815112
 30
0.0
 11
4.01731941
 21
-55.1321194757
 31
0.0
  0
LINE
  5
31E
330
20A
100
AcDbEntity
  8
0
  6
Continuous
 62
     0
370
    18
100
AcDbLine
 10
6.7321042977
 20
-62.5909296532
 30
0.0
 11
6.1891473201
 21
-61.0991676177
 31
0.0
  0
LINE
  5
31F
330
20A
100
AcDbEntity
  8
0
  6
Continuous
 62
     0
370
    18
100
AcDbLine
 10
8.9039322078
 20
-68.5579777952
 30
0.0
 11
8.3609752302
 21
-67.0662157597
 31
0.0
  0
LINE
  5
320
330
20A
100
AcDbEntity
  8
0
  6
Continuous
 62
     0
370
    18
100
AcDbLine
 10
11.0757601179
 20
-74.5250259372
 30
0.0
 11
10.5328031404
 21
-73.0332639017
 31
0.0
  0
LINE
  5
321
330
20A
100
AcDbEntity
  8
0
  6
Continuous
 62
     0
370
    18
100
AcDbLine
 10
13.247588028
 20
-80.4920740792
 30
0.0
 11
12.7046310505
 21
-79.0003120437
 31
0.0
  0
LINE
  5
322
330
20A
100
AcDbEntity
  8
0
  6
Continuous
 62
     0
370
    18
100
AcDbLine
 10
15.4194159381
 20
-86.4591222212
 30
0.0
 11
14.8764589606
 21
-84.9673601857
 31
0.0
  0
LINE
  5
323
330
20A
100
AcDbEntity
  8
0
  6
Continuous
 62
     0
370
    18
100
AcDbLine
 10
17.5912438482
 20
-92.4261703631
 30
0.0
 11
17.0482868707
 21
-90.9344083276
 31
0.0
  0
LINE
  5
324
330
20A
100
AcDbEntity
  8
0
  6
Continuous
 62
     0
370
    18
100
AcDbLine
 10
19.7630717584
 20
-98.3932185051
 30
0.0
 11
19.2201147808
 21
-96.9014564696
 31
0.0
  0
LINE
  5
325
330
20A
100
AcDbEntity
  8
0
  6
Continuous
 62
     0
370
    18
100
AcDbLine
 10
21.9348996685
 20
-104.3602666471
 30
0.0
 11
21.391942691
 21
-102.8685046116
 31
0.0
  0
LINE
  5
326
330
20A
100
AcDbEntity
  8
0
  6
Continuous
 62
     0
370
    18
100
AcDbLine
 10
-4.4012530471
 20
-22.7192027752
 30
0.0
 11
-4.9442100246
 21
-21.2274407397
 31
0.0
  0
LINE
  5
327
330
20A
100
AcDbEntity
  8
0
  6
Continuous
 62
     0
370
    18
100
AcDbLine
 10
-2.229425137
 20
-28.6862509172
 30
0.0
 11
-2.7723821145
 21
-27.1944888817
 31
0.0
  0
LINE
  5
328
330
20A
100
AcDbEntity
  8
0
  6
Continuous
 62
     0
370
    18
100
AcDbLine
 10
-0.0575972269
 20
-34.6532990592
 30
0.0
 11
-0.6005542044
 21
-33.1615370237
 31
0.0
  0
LINE
  5
329
330
20A
100
AcDbEntity
  8
0
  6
Continuous
 62
     0
370
    18
100
AcDbLine
 10
2.1142306832
 20
-40.6203472012
 30
0.0
 11
1.5712737057
 21
-39.1285851657
 31
0.0
  0
LINE
  5
32A
330
20A
100
AcDbEntity
  8
0
  6
Continuous
 62
     0
370
    18
100
AcDbLine
 10
4.2860585934
 20
-46.5873953432
 30
0.0
 11
3.7431016158
 21
-45.0956333077
 31
0.0
  0
LINE
  5
32B
330
20A
100
AcDbEntity
  8
0
  6
Continuous
 62
     0
370
    18
100
AcDbLine
 10
6.4578865035
 20
-52.5544434851
 30
0.0
 11
5.9149295259
 21
-51.0626814496
 31
0.0
  0
LINE
  5
32C
330
20A
100
AcDbEntity
  8
0
  6
Continuous
 62
     0
370
    18
100
AcDbLine
 10
8.6297144136
 20
-58.5214916271
 30
0.0
 11
8.0867574361
 21
-57.0297295916
 31
0.0
  0
LINE
  5
32D
330
20A
100
AcDbEntity
  8
0
  6
Continuous
 62
     0
370
    18
100
AcDbLine
 10
10.8015423237
 20
-64.4885397691
 30
0.0
 11
10.2585853462
 21
-62.9967777336
 31
0.0
  0
LINE
  5
32E
330
20A
100
AcDbEntity
  8
0
  6
Continuous
 62
     0
370
    18
100
AcDbLine
 10
12.9733702338
 20
-70.4555879111
 30
0.0
 11
12.4304132563
 21
-68.9638258756
 31
0.0
  0
LINE
  5
32F
330
20A
100
AcDbEntity
  8
0
  6
Continuous
 62
     0
370
    18
100
AcDbLine
 10
15.1451981439
 20
-76.4226360531
 30
0.0
 11
14.6022411664
 21
-74.9308740176
 31
0.0
  0
LINE
  5
330
330
20A
100
AcDbEntity
  8
0
  6
Continuous
 62
     0
370
    18
100
AcDbLine
 10
17.3170260541
 20
-82.3896841951
 30
0.0
 11
16.7740690765
 21
-80.8979221596
 31
0.0
  0
LINE
  5
331
330
20A
100
AcDbEntity
  8
0
  6
Continuous
 62
     0
370
    18
100
AcDbLine
 10
19.4888539642
 20
-88.3567323371
 30
0.0
 11
18.9458969867
 21
-86.8649703016
 31
0.0
  0
LINE
  5
332
330
20A
100
AcDbEntity
  8
0
  6
Continuous
 62
     0
370
    18
100
AcDbLine
 10
21.6606818743
 20
-94.3237804791
 30
0.0
 11
21.1177248968
 21
-92.8320184436
 31
0.0
  0
LINE
  5
333
330
20A
100
AcDbEntity
  8
0
  6
Continuous
 62
     0
370
    18
100
AcDbLine
 10
23.8325097844
 20
-100.2908286211
 30
0.0
 11
23.2895528069
 21
-98.7990665856
 31
0.0
  0
LINE
  5
334
330
20A
100
AcDbEntity
  8
0
  6
Continuous
 62
     0
370
    18
100
AcDbLine
 10
25.9119950441
 20
-106.0041674161
 30
0.0
 11
25.461380717
 21
-104.7661147276
 31
0.0
  0
LINE
  5
335
330
20A
100
AcDbEntity
  8
0
  6
Continuous
 62
     0
370
    18
100
AcDbLine
 10
-4.6754708413
 20
-12.6827166071
 30
0.0
 11
-5.2184278188
 21
-11.1909545716
 31
0.0
  0
LINE
  5
336
330
20A
100
AcDbEntity
  8
0
  6
Continuous
 62
     0
370
    18
100
AcDbLine
 10
-2.5036429312
 20
-18.6497647491
 30
0.0
 11
-3.0465999087
 21
-17.1580027136
 31
0.0
  0
LINE
  5
337
330
20A
100
AcDbEntity
  8
0
  6
Continuous
 62
     0
370
    18
100
AcDbLine
 10
-0.3318150211
 20
-24.6168128911
 30
0.0
 11
-0.8747719986
 21
-23.1250508556
 31
0.0
  0
LINE
  5
338
330
20A
100
AcDbEntity
  8
0
  6
Continuous
 62
     0
370
    18
100
AcDbLine
 10
1.8400128891
 20
-30.5838610331
 30
0.0
 11
1.2970559115
 21
-29.0920989976
 31
0.0
  0
LINE
  5
339
330
20A
100
AcDbEntity
  8
0
  6
Continuous
 62
     0
370
    18
100
AcDbLine
 10
4.0118407992
 20
-36.5509091751
 30
0.0
 11
3.4688838216
 21
-35.0591471396
 31
0.0
  0
LINE
  5
33A
330
20A
100
AcDbEntity
  8
0
  6
Continuous
 62
     0
370
    18
100
AcDbLine
 10
6.1836687093
 20
-42.5179573171
 30
0.0
 11
5.6407117318
 21
-41.0261952816
 31
0.0
  0
LINE
  5
33B
330
20A
100
AcDbEntity
  8
0
  6
Continuous
 62
     0
370
    18
100
AcDbLine
 10
8.3554966194
 20
-48.4850054591
 30
0.0
 11
7.8125396419
 21
-46.9932434236
 31
0.0
  0
LINE
  5
33C
330
20A
100
AcDbEntity
  8
0
  6
Continuous
 62
     0
370
    18
100
AcDbLine
 10
10.5273245295
 20
-54.4520536011
 30
0.0
 11
9.984367552
 21
-52.9602915656
 31
0.0
  0
LINE
  5
33D
330
20A
100
AcDbEntity
  8
0
  6
Continuous
 62
     0
370
    18
100
AcDbLine
 10
12.6991524396
 20
-60.4191017431
 30
0.0
 11
12.1561954621
 21
-58.9273397076
 31
0.0
  0
LINE
  5
33E
330
20A
100
AcDbEntity
  8
0
  6
Continuous
 62
     0
370
    18
100
AcDbLine
 10
14.8709803498
 20
-66.3861498851
 30
0.0
 11
14.3280233722
 21
-64.8943878496
 31
0.0
  0
LINE
  5
33F
330
20A
100
AcDbEntity
  8
0
  6
Continuous
 62
     0
370
    18
100
AcDbLine
 10
17.0428082599
 20
-72.3531980271
 30
0.0
 11
16.4998512824
 21
-70.8614359916
 31
0.0
  0
LINE
  5
340
330
20A
100
AcDbEntity
  8
0
  6
Continuous
 62
     0
370
    18
100
AcDbLine
 10
19.21463617
 20
-78.320246169
 30
0.0
 11
18.6716791925
 21
-76.8284841335
 31
0.0
  0
LINE
  5
341
330
20A
100
AcDbEntity
  8
0
  6
Continuous
 62
     0
370
    18
100
AcDbLine
 10
21.3864640801
 20
-84.287294311
 30
0.0
 11
20.8435071026
 21
-82.7955322755
 31
0.0
  0
LINE
  5
342
330
20A
100
AcDbEntity
  8
0
  6
Continuous
 62
     0
370
    18
100
AcDbLine
 10
23.5582919902
 20
-90.254342453
 30
0.0
 11
23.0153350127
 21
-88.7625804175
 31
0.0
  0
LINE
  5
343
330
20A
100
AcDbEntity
  8
0
  6
Continuous
 62
     0
370
    18
100
AcDbLine
 10
25.7301199004
 20
-96.221390595
 30
0.0
 11
25.1871629228
 21
-94.7296285595
 31
0.0
  0
LINE
  5
344
330
20A
100
AcDbEntity
  8
0
  6
Continuous
 62
     0
370
    18
100
AcDbLine
 10
-4.9496886355
 20
-2.6462304391
 30
0.0
 11
-5.2677143295
 21
-1.7724620261
 31
0.0
  0
LINE
  5
345
330
20A
100
AcDbEntity
  8
0
  6
Continuous
 62
     0
370
    18
100
AcDbLine
 10
-2.7778607254
 20
-8.6132785811
 30
0.0
 11
-3.3208177029
 21
-7.1215165456
 31
0.0
  0
LINE
  5
346
330
20A
100
AcDbEntity
  8
0
  6
Continuous
 62
     0
370
    18
100
AcDbLine
 10
-0.6060328152
 20
-14.5803267231
 30
0.0
 11
-1.1489897928
 21
-13.0885646876
 31
0.0
  0
LINE
  5
347
330
20A
100
AcDbEntity
  8
0
  6
Continuous
 62
     0
370
    18
100
AcDbLine
 10
1.5657950949
 20
-20.5473748651
 30
0.0
 11
1.0228381173
 21
-19.0556128296
 31
0.0
  0
LINE
  5
348
330
20A
100
AcDbEntity
  8
0
  6
Continuous
 62
     0
370
    18
100
AcDbLine
 10
3.737623005
 20
-26.5144230071
 30
0.0
 11
3.1946660275
 21
-25.0226609716
 31
0.0
  0
LINE
  5
349
330
20A
100
AcDbEntity
  8
0
  6
Continuous
 62
     0
370
    18
100
AcDbLine
 10
5.9094509151
 20
-32.4814711491
 30
0.0
 11
5.3664939376
 21
-30.9897091136
 31
0.0
  0
LINE
  5
34A
330
20A
100
AcDbEntity
  8
0
  6
Continuous
 62
     0
370
    18
100
AcDbLine
 10
8.0812788252
 20
-38.448519291
 30
0.0
 11
7.5383218477
 21
-36.9567572555
 31
0.0
  0
LINE
  5
34B
330
20A
100
AcDbEntity
  8
0
  6
Continuous
 62
     0
370
    18
100
AcDbLine
 10
10.2531067353
 20
-44.415567433
 30
0.0
 11
9.7101497578
 21
-42.9238053975
 31
0.0
  0
LINE
  5
34C
330
20A
100
AcDbEntity
  8
0
  6
Continuous
 62
     0
370
    18
100
AcDbLine
 10
12.4249346455
 20
-50.382615575
 30
0.0
 11
11.8819776679
 21
-48.8908535395
 31
0.0
  0
LINE
  5
34D
330
20A
100
AcDbEntity
  8
0
  6
Continuous
 62
     0
370
    18
100
AcDbLine
 10
14.5967625556
 20
-56.349663717
 30
0.0
 11
14.0538055781
 21
-54.8579016815
 31
0.0
  0
LINE
  5
34E
330
20A
100
AcDbEntity
  8
0
  6
Continuous
 62
     0
370
    18
100
AcDbLine
 10
16.7685904657
 20
-62.316711859
 30
0.0
 11
16.2256334882
 21
-60.8249498235
 31
0.0
  0
LINE
  5
34F
330
20A
100
AcDbEntity
  8
0
  6
Continuous
 62
     0
370
    18
100
AcDbLine
 10
18.9404183758
 20
-68.283760001
 30
0.0
 11
18.3974613983
 21
-66.7919979655
 31
0.0
  0
LINE
  5
350
330
20A
100
AcDbEntity
  8
0
  6
Continuous
 62
     0
370
    18
100
AcDbLine
 10
21.1122462859
 20
-74.250808143
 30
0.0
 11
20.5692893084
 21
-72.7590461075
 31
0.0
  0
LINE
  5
351
330
20A
100
AcDbEntity
  8
0
  6
Continuous
 62
     0
370
    18
100
AcDbLine
 10
23.2840741961
 20
-80.217856285
 30
0.0
 11
22.7411172185
 21
-78.7260942495
 31
0.0
  0
LINE
  5
352
330
20A
100
AcDbEntity
  8
0
  6
Continuous
 62
     0
370
    18
100
AcDbLine
 10
25.4559021062
 20
-86.184904427
 30
0.0
 11
24.9129451286
 21
-84.6931423915
 31
0.0
  0
LINE
  5
353
330
20A
100
AcDbEntity
  8
0
  6
Continuous
 62
     0
370
    18
100
AcDbLine
 10
27.4443068583
 20
-91.6480015842
 30
0.0
 11
27.0847730388
 21
-90.6601905335
 31
0.0
  0
LINE
  5
354
330
20A
100
AcDbEntity
  8
0
  6
Continuous
 62
     0
370
    18
100
AcDbLine
 10
-0.8802506094
 20
-4.543840555
 30
0.0
 11
-1.423207587
 21
-3.0520785195
 31
0.0
  0
LINE
  5
355
330
20A
100
AcDbEntity
  8
0
  6
Continuous
 62
     0
370
    18
100
AcDbLine
 10
1.2915773007
 20
-10.510888697
 30
0.0
 11
0.7486203232
 21
-9.0191266615
 31
0.0
  0
LINE
  5
356
330
20A
100
AcDbEntity
  8
0
  6
Continuous
 62
     0
370
    18
100
AcDbLine
 10
3.4634052108
 20
-16.477936839
 30
0.0
 11
2.9204482333
 21
-14.9861748035
 31
0.0
  0
LINE
  5
357
330
20A
100
AcDbEntity
  8
0
  6
Continuous
 62
     0
370
    18
100
AcDbLine
 10
5.6352331209
 20
-22.444984981
 30
0.0
 11
5.0922761434
 21
-20.9532229455
 31
0.0
  0
LINE
  5
358
330
20A
100
AcDbEntity
  8
0
  6
Continuous
 62
     0
370
    18
100
AcDbLine
 10
7.807061031
 20
-28.412033123
 30
0.0
 11
7.2641040535
 21
-26.9202710875
 31
0.0
  0
LINE
  5
359
330
20A
100
AcDbEntity
  8
0
  6
Continuous
 62
     0
370
    18
100
AcDbLine
 10
9.9788889412
 20
-34.379081265
 30
0.0
 11
9.4359319636
 21
-32.8873192295
 31
0.0
  0
LINE
  5
35A
330
20A
100
AcDbEntity
  8
0
  6
Continuous
 62
     0
370
    18
100
AcDbLine
 10
12.1507168513
 20
-40.346129407
 30
0.0
 11
11.6077598738
 21
-38.8543673715
 31
0.0
  0
LINE
  5
35B
330
20A
100
AcDbEntity
  8
0
  6
Continuous
 62
     0
370
    18
100
AcDbLine
 10
14.3225447614
 20
-46.313177549
 30
0.0
 11
13.7795877839
 21
-44.8214155135
 31
0.0
  0
LINE
  5
35C
330
20A
100
AcDbEntity
  8
0
  6
Continuous
 62
     0
370
    18
100
AcDbLine
 10
16.4943726715
 20
-52.280225691
 30
0.0
 11
15.951415694
 21
-50.7884636555
 31
0.0
  0
LINE
  5
35D
330
20A
100
AcDbEntity
  8
0
  6
Continuous
 62
     0
370
    18
100
AcDbLine
 10
18.6662005816
 20
-58.247273833
 30
0.0
 11
18.1232436041
 21
-56.7555117975
 31
0.0
  0
LINE
  5
35E
330
20A
100
AcDbEntity
  8
0
  6
Continuous
 62
     0
370
    18
100
AcDbLine
 10
20.8380284918
 20
-64.2143219749
 30
0.0
 11
20.2950715142
 21
-62.7225599394
 31
0.0
  0
LINE
  5
35F
330
20A
100
AcDbEntity
  8
0
  6
Continuous
 62
     0
370
    18
100
AcDbLine
 10
23.0098564019
 20
-70.1813701169
 30
0.0
 11
22.4668994243
 21
-68.6896080814
 31
0.0
  0
LINE
  5
360
330
20A
100
AcDbEntity
  8
0
  6
Continuous
 62
     0
370
    18
100
AcDbLine
 10
25.181684312
 20
-76.1484182589
 30
0.0
 11
24.6387273345
 21
-74.6566562234
 31
0.0
  0
LINE
  5
361
330
20A
100
AcDbEntity
  8
0
  6
Continuous
 62
     0
370
    18
100
AcDbLine
 10
27.3535122221
 20
-82.1154664009
 30
0.0
 11
26.8105552446
 21
-80.6237043654
 31
0.0
  0
LINE
  5
362
330
20A
100
AcDbEntity
  8
0
  6
Continuous
 62
     0
370
    18
100
AcDbLine
 10
1.0173595065
 20
-0.474402529
 30
0.0
 11
0.5035951957
 21
0.9371533138
 31
0.0
  0
LINE
  5
363
330
20A
100
AcDbEntity
  8
0
  6
Continuous
 62
     0
370
    18
100
AcDbLine
 10
3.1891874166
 20
-6.441450671
 30
0.0
 11
2.6462304391
 21
-4.9496886355
 31
0.0
  0
LINE
  5
364
330
20A
100
AcDbEntity
  8
0
  6
Continuous
 62
     0
370
    18
100
AcDbLine
 10
5.3610153267
 20
-12.408498813
 30
0.0
 11
4.8180583492
 21
-10.9167367775
 31
0.0
  0
LINE
  5
365
330
20A
100
AcDbEntity
  8
0
  6
Continuous
 62
     0
370
    18
100
AcDbLine
 10
7.5328432369
 20
-18.375546955
 30
0.0
 11
6.9898862593
 21
-16.8837849195
 31
0.0
  0
LINE
  5
366
330
20A
100
AcDbEntity
  8
0
  6
Continuous
 62
     0
370
    18
100
AcDbLine
 10
9.704671147
 20
-24.3425950969
 30
0.0
 11
9.1617141695
 21
-22.8508330614
 31
0.0
  0
LINE
  5
367
330
20A
100
AcDbEntity
  8
0
  6
Continuous
 62
     0
370
    18
100
AcDbLine
 10
11.8764990571
 20
-30.3096432389
 30
0.0
 11
11.3335420796
 21
-28.8178812034
 31
0.0
  0
LINE
  5
368
330
20A
100
AcDbEntity
  8
0
  6
Continuous
 62
     0
370
    18
100
AcDbLine
 10
14.0483269672
 20
-36.2766913809
 30
0.0
 11
13.5053699897
 21
-34.7849293454
 31
0.0
  0
LINE
  5
369
330
20A
100
AcDbEntity
  8
0
  6
Continuous
 62
     0
370
    18
100
AcDbLine
 10
16.2201548773
 20
-42.2437395229
 30
0.0
 11
15.6771978998
 21
-40.7519774874
 31
0.0
  0
LINE
  5
36A
330
20A
100
AcDbEntity
  8
0
  6
Continuous
 62
     0
370
    18
100
AcDbLine
 10
18.3284073602
 20
-48.0361156139
 30
0.0
 11
17.8490258099
 21
-46.7190256294
 31
0.0
  0
LINE
  5
36B
330
20A
100
AcDbEntity
  8
0
  6
Continuous
 62
     0
370
    18
100
AcDbLine
 10
20.5638106976
 20
-54.1778358069
 30
0.0
 11
20.02085372
 21
-52.6860737714
 31
0.0
  0
LINE
  5
36C
330
20A
100
AcDbEntity
  8
0
  6
Continuous
 62
     0
370
    18
100
AcDbLine
 10
22.7356386077
 20
-60.1448839489
 30
0.0
 11
22.1926816302
 21
-58.6531219134
 31
0.0
  0
LINE
  5
36D
330
20A
100
AcDbEntity
  8
0
  6
Continuous
 62
     0
370
    18
100
AcDbLine
 10
24.9074665178
 20
-66.1119320909
 30
0.0
 11
24.3645095403
 21
-64.6201700554
 31
0.0
  0
LINE
  5
36E
330
20A
100
AcDbEntity
  8
0
  6
Continuous
 62
     0
370
    18
100
AcDbLine
 10
27.0792944279
 20
-72.0789802329
 30
0.0
 11
26.5363374504
 21
-70.5872181974
 31
0.0
  0
LINE
  5
36F
330
20A
100
AcDbEntity
  8
0
  6
Continuous
 62
     0
370
    18
100
AcDbLine
 10
5.0867975326
 20
-2.3720126449
 30
0.0
 11
4.543840555
 21
-0.8802506094
 31
0.0
  0
LINE
  5
370
330
20A
100
AcDbEntity
  8
0
  6
Continuous
 62
     0
370
    18
100
AcDbLine
 10
7.2586254427
 20
-8.3390607869
 30
0.0
 11
6.7156684652
 21
-6.8472987514
 31
0.0
  0
LINE
  5
371
330
20A
100
AcDbEntity
  8
0
  6
Continuous
 62
     0
370
    18
100
AcDbLine
 10
9.4304533528
 20
-14.3061089289
 30
0.0
 11
8.8874963753
 21
-12.8143468934
 31
0.0
  0
LINE
  5
372
330
20A
100
AcDbEntity
  8
0
  6
Continuous
 62
     0
370
    18
100
AcDbLine
 10
11.6022812629
 20
-20.2731570709
 30
0.0
 11
11.0593242854
 21
-18.7813950354
 31
0.0
  0
LINE
  5
373
330
20A
100
AcDbEntity
  8
0
  6
Continuous
 62
     0
370
    18
100
AcDbLine
 10
13.774109173
 20
-26.2402052129
 30
0.0
 11
13.2311521955
 21
-24.7484431774
 31
0.0
  0
LINE
  5
374
330
20A
100
AcDbEntity
  8
0
  6
Continuous
 62
     0
370
    18
100
AcDbLine
 10
15.9459370832
 20
-32.2072533549
 30
0.0
 11
15.4029801056
 21
-30.7154913194
 31
0.0
  0
LINE
  5
375
330
20A
100
AcDbEntity
  8
0
  6
Continuous
 62
     0
370
    18
100
AcDbLine
 10
18.1177649933
 20
-38.1743014969
 30
0.0
 11
17.5748080157
 21
-36.6825394614
 31
0.0
  0
LINE
  5
376
330
20A
100
AcDbEntity
  8
0
  6
Continuous
 62
     0
370
    18
100
AcDbLine
 10
20.2895929034
 20
-44.1413496389
 30
0.0
 11
19.7466359259
 21
-42.6495876034
 31
0.0
  0
LINE
  5
377
330
20A
100
AcDbEntity
  8
0
  6
Continuous
 62
     0
370
    18
100
AcDbLine
 10
22.4614208135
 20
-50.1083977808
 30
0.0
 11
22.2860042195
 21
-49.6264446499
 31
0.0
  0
LINE
  5
378
330
20A
100
AcDbEntity
  8
0
  6
Continuous
 62
     0
370
    18
100
AcDbLine
 10
24.6332487236
 20
-56.0754459228
 30
0.0
 11
24.0902917461
 21
-54.5836838873
 31
0.0
  0
LINE
  5
379
330
20A
100
AcDbEntity
  8
0
  6
Continuous
 62
     0
370
    18
100
AcDbLine
 10
26.8050766337
 20
-62.0424940648
 30
0.0
 11
26.2621196562
 21
-60.5507320293
 31
0.0
  0
LINE
  5
37A
330
20A
100
AcDbEntity
  8
0
  6
Continuous
 62
     0
370
    18
100
AcDbLine
 10
28.9769045439
 20
-68.0095422068
 30
0.0
 11
28.4339475663
 21
-66.5177801713
 31
0.0
  0
LINE
  5
37B
330
20A
100
AcDbEntity
  8
0
  6
Continuous
 62
     0
370
    18
100
AcDbLine
 10
9.1562355586
 20
-4.2696227609
 30
0.0
 11
8.6132785811
 21
-2.7778607254
 31
0.0
  0
LINE
  5
37C
330
20A
100
AcDbEntity
  8
0
  6
Continuous
 62
     0
370
    18
100
AcDbLine
 10
11.3280634687
 20
-10.2366709028
 30
0.0
 11
10.7851064912
 21
-8.7449088673
 31
0.0
  0
LINE
  5
37D
330
20A
100
AcDbEntity
  8
0
  6
Continuous
 62
     0
370
    18
100
AcDbLine
 10
13.4998913789
 20
-16.2037190448
 30
0.0
 11
12.9569344013
 21
-14.7119570093
 31
0.0
  0
LINE
  5
37E
330
20A
100
AcDbEntity
  8
0
  6
Continuous
 62
     0
370
    18
100
AcDbLine
 10
15.671719289
 20
-22.1707671868
 30
0.0
 11
15.1287623114
 21
-20.6790051513
 31
0.0
  0
LINE
  5
37F
330
20A
100
AcDbEntity
  8
0
  6
Continuous
 62
     0
370
    18
100
AcDbLine
 10
17.8435471991
 20
-28.1378153288
 30
0.0
 11
17.3005902216
 21
-26.6460532933
 31
0.0
  0
LINE
  5
380
330
20A
100
AcDbEntity
  8
0
  6
Continuous
 62
     0
370
    18
100
AcDbLine
 10
20.0153751092
 20
-34.1048634708
 30
0.0
 11
19.4724181317
 21
-32.6131014353
 31
0.0
  0
LINE
  5
381
330
20A
100
AcDbEntity
  8
0
  6
Continuous
 62
     0
370
    18
100
AcDbLine
 10
22.1872030193
 20
-40.0719116128
 30
0.0
 11
21.6442460418
 21
-38.5801495773
 31
0.0
  0
LINE
  5
382
330
20A
100
AcDbEntity
  8
0
  6
Continuous
 62
     0
370
    18
100
AcDbLine
 10
24.3590309294
 20
-46.0389597548
 30
0.0
 11
23.8160739519
 21
-44.5471977193
 31
0.0
  0
LINE
  5
383
330
20A
100
AcDbEntity
  8
0
  6
Continuous
 62
     0
370
    18
100
AcDbLine
 10
26.5308588396
 20
-52.0060078968
 30
0.0
 11
25.987901862
 21
-50.5142458613
 31
0.0
  0
LINE
  5
384
330
20A
100
AcDbEntity
  8
0
  6
Continuous
 62
     0
370
    18
100
AcDbLine
 10
28.7026867497
 20
-57.9730560388
 30
0.0
 11
28.1597297722
 21
-56.4812940033
 31
0.0
  0
LINE
  5
385
330
20A
100
AcDbEntity
  8
0
  6
Continuous
 62
     0
370
    18
100
AcDbLine
 10
11.0538456746
 20
-0.2001847348
 30
0.0
 11
10.6398884786
 21
0.9371533138
 31
0.0
  0
LINE
  5
386
330
20A
100
AcDbEntity
  8
0
  6
Continuous
 62
     0
370
    18
100
AcDbLine
 10
13.2256735847
 20
-6.1672328768
 30
0.0
 11
12.6827166071
 21
-4.6754708413
 31
0.0
  0
LINE
  5
387
330
20A
100
AcDbEntity
  8
0
  6
Continuous
 62
     0
370
    18
100
AcDbLine
 10
15.3975014948
 20
-12.1342810188
 30
0.0
 11
14.8545445173
 21
-10.6425189833
 31
0.0
  0
LINE
  5
388
330
20A
100
AcDbEntity
  8
0
  6
Continuous
 62
     0
370
    18
100
AcDbLine
 10
17.5693294049
 20
-18.1013291608
 30
0.0
 11
17.0263724274
 21
-16.6095671253
 31
0.0
  0
LINE
  5
389
330
20A
100
AcDbEntity
  8
0
  6
Continuous
 62
     0
370
    18
100
AcDbLine
 10
19.741157315
 20
-24.0683773028
 30
0.0
 11
19.1982003375
 21
-22.5766152673
 31
0.0
  0
LINE
  5
38A
330
20A
100
AcDbEntity
  8
0
  6
Continuous
 62
     0
370
    18
100
AcDbLine
 10
21.9129852251
 20
-30.0354254448
 30
0.0
 11
21.3700282476
 21
-28.5436634093
 31
0.0
  0
LINE
  5
38B
330
20A
100
AcDbEntity
  8
0
  6
Continuous
 62
     0
370
    18
100
AcDbLine
 10
24.0848131353
 20
-36.0024735867
 30
0.0
 11
23.5418561577
 21
-34.5107115512
 31
0.0
  0
LINE
  5
38C
330
20A
100
AcDbEntity
  8
0
  6
Continuous
 62
     0
370
    18
100
AcDbLine
 10
26.2566410454
 20
-41.9695217287
 30
0.0
 11
25.7136840679
 21
-40.4777596932
 31
0.0
  0
LINE
  5
38D
330
20A
100
AcDbEntity
  8
0
  6
Continuous
 62
     0
370
    18
100
AcDbLine
 10
28.4284689555
 20
-47.9365698707
 30
0.0
 11
27.885511978
 21
-46.4448078352
 31
0.0
  0
LINE
  5
38E
330
20A
100
AcDbEntity
  8
0
  6
Continuous
 62
     0
370
    18
100
AcDbLine
 10
30.5547172706
 20
-53.7783891046
 30
0.0
 11
30.0573398881
 21
-52.4118559772
 31
0.0
  0
LINE
  5
38F
330
20A
100
AcDbEntity
  8
0
  6
Continuous
 62
     0
370
    18
100
AcDbLine
 10
15.1232837006
 20
-2.0977948507
 30
0.0
 11
14.5803267231
 21
-0.6060328152
 31
0.0
  0
LINE
  5
390
330
20A
100
AcDbEntity
  8
0
  6
Continuous
 62
     0
370
    18
100
AcDbLine
 10
17.2951116107
 20
-8.0648429927
 30
0.0
 11
16.7521546332
 21
-6.5730809572
 31
0.0
  0
LINE
  5
391
330
20A
100
AcDbEntity
  8
0
  6
Continuous
 62
     0
370
    18
100
AcDbLine
 10
19.4669395208
 20
-14.0318911347
 30
0.0
 11
18.9239825433
 21
-12.5401290992
 31
0.0
  0
LINE
  5
392
330
20A
100
AcDbEntity
  8
0
  6
Continuous
 62
     0
370
    18
100
AcDbLine
 10
21.638767431
 20
-19.9989392767
 30
0.0
 11
21.0958104534
 21
-18.5071772412
 31
0.0
  0
LINE
  5
393
330
20A
100
AcDbEntity
  8
0
  6
Continuous
 62
     0
370
    18
100
AcDbLine
 10
23.8105953411
 20
-25.9659874187
 30
0.0
 11
23.2676383636
 21
-24.4742253832
 31
0.0
  0
LINE
  5
394
330
20A
100
AcDbEntity
  8
0
  6
Continuous
 62
     0
370
    18
100
AcDbLine
 10
25.9824232512
 20
-31.9330355607
 30
0.0
 11
25.4394662737
 21
-30.4412735252
 31
0.0
  0
LINE
  5
395
330
20A
100
AcDbEntity
  8
0
  6
Continuous
 62
     0
370
    18
100
AcDbLine
 10
28.1542511613
 20
-37.9000837027
 30
0.0
 11
27.6112941838
 21
-36.4083216672
 31
0.0
  0
LINE
  5
396
330
20A
100
AcDbEntity
  8
0
  6
Continuous
 62
     0
370
    18
100
AcDbLine
 10
30.3260790714
 20
-43.8671318447
 30
0.0
 11
29.7831220939
 21
-42.3753698092
 31
0.0
  0
LINE
  5
397
330
20A
100
AcDbEntity
  8
0
  6
Continuous
 62
     0
370
    18
100
AcDbLine
 10
19.1927217267
 20
-3.9954049667
 30
0.0
 11
18.6497647491
 21
-2.5036429312
 31
0.0
  0
LINE
  5
398
330
20A
100
AcDbEntity
  8
0
  6
Continuous
 62
     0
370
    18
100
AcDbLine
 10
21.3645496368
 20
-9.9624531087
 30
0.0
 11
20.8215926593
 21
-8.4706910732
 31
0.0
  0
LINE
  5
399
330
20A
100
AcDbEntity
  8
0
  6
Continuous
 62
     0
370
    18
100
AcDbLine
 10
23.5363775469
 20
-15.9295012507
 30
0.0
 11
22.9934205694
 21
-14.4377392152
 31
0.0
  0
LINE
  5
39A
330
20A
100
AcDbEntity
  8
0
  6
Continuous
 62
     0
370
    18
100
AcDbLine
 10
25.708205457
 20
-21.8965493926
 30
0.0
 11
25.1652484795
 21
-20.4047873571
 31
0.0
  0
LINE
  5
39B
330
20A
100
AcDbEntity
  8
0
  6
Continuous
 62
     0
370
    18
100
AcDbLine
 10
27.8800333671
 20
-27.8635975346
 30
0.0
 11
27.3370763896
 21
-26.3718354991
 31
0.0
  0
LINE
  5
39C
330
20A
100
AcDbEntity
  8
0
  6
Continuous
 62
     0
370
    18
100
AcDbLine
 10
30.0518612773
 20
-33.8306456766
 30
0.0
 11
29.5089042997
 21
-32.3388836411
 31
0.0
  0
LINE
  5
39D
330
20A
100
AcDbEntity
  8
0
  6
Continuous
 62
     0
370
    18
100
AcDbLine
 10
31.7988814355
 20
-38.6305441128
 30
0.0
 11
31.6807322098
 21
-38.3059317831
 31
0.0
  0
LINE
  5
39E
330
20A
100
AcDbEntity
  8
0
  6
Continuous
 62
     0
370
    18
100
AcDbLine
 10
21.0903318426
 20
0.0740330594
 30
0.0
 11
20.7761817614
 21
0.9371533138
 31
0.0
  0
LINE
  5
39F
330
20A
100
AcDbEntity
  8
0
  6
Continuous
 62
     0
370
    18
100
AcDbLine
 10
23.2621597527
 20
-5.8930150826
 30
0.0
 11
22.7192027752
 21
-4.4012530471
 31
0.0
  0
LINE
  5
3A0
330
20A
100
AcDbEntity
  8
0
  6
Continuous
 62
     0
370
    18
100
AcDbLine
 10
25.4339876628
 20
-11.8600632246
 30
0.0
 11
24.8910306853
 21
-10.3683011891
 31
0.0
  0
LINE
  5
3A1
330
20A
100
AcDbEntity
  8
0
  6
Continuous
 62
     0
370
    18
100
AcDbLine
 10
27.605815573
 20
-17.8271113666
 30
0.0
 11
27.0628585954
 21
-16.3353493311
 31
0.0
  0
LINE
  5
3A2
330
20A
100
AcDbEntity
  8
0
  6
Continuous
 62
     0
370
    18
100
AcDbLine
 10
29.7776434831
 20
-23.7941595086
 30
0.0
 11
29.2346865055
 21
-22.3023974731
 31
0.0
  0
LINE
  5
3A3
330
20A
100
AcDbEntity
  8
0
  6
Continuous
 62
     0
370
    18
100
AcDbLine
 10
31.9494713932
 20
-29.7612076506
 30
0.0
 11
31.4065144157
 21
-28.2694456151
 31
0.0
  0
LINE
  5
3A4
330
20A
100
AcDbEntity
  8
0
  6
Continuous
 62
     0
370
    18
100
AcDbLine
 10
25.1597698687
 20
-1.8235770566
 30
0.0
 11
24.6168128911
 21
-0.3318150211
 31
0.0
  0
LINE
  5
3A5
330
20A
100
AcDbEntity
  8
0
  6
Continuous
 62
     0
370
    18
100
AcDbLine
 10
27.3315977788
 20
-7.7906251985
 30
0.0
 11
26.7886408012
 21
-6.298863163
 31
0.0
  0
LINE
  5
3A6
330
20A
100
AcDbEntity
  8
0
  6
Continuous
 62
     0
370
    18
100
AcDbLine
 10
29.5034256889
 20
-13.7576733405
 30
0.0
 11
28.9604687114
 21
-12.265911305
 31
0.0
  0
LINE
  5
3A7
330
20A
100
AcDbEntity
  8
0
  6
Continuous
 62
     0
370
    18
100
AcDbLine
 10
31.675253599
 20
-19.7247214825
 30
0.0
 11
31.1322966215
 21
-18.232959447
 31
0.0
  0
LINE
  5
3A8
330
20A
100
AcDbEntity
  8
0
  6
Continuous
 62
     0
370
    18
100
AcDbLine
 10
29.2292078947
 20
-3.7211871725
 30
0.0
 11
28.6862509172
 21
-2.229425137
 31
0.0
  0
LINE
  5
3A9
330
20A
100
AcDbEntity
  8
0
  6
Continuous
 62
     0
370
    18
100
AcDbLine
 10
31.4010358048
 20
-9.6882353145
 30
0.0
 11
30.8580788273
 21
-8.196473279
 31
0.0
  0
LINE
  5
3AA
330
20A
100
AcDbEntity
  8
0
  6
Continuous
 62
     0
370
    18
100
AcDbLine
 10
33.5728637149
 20
-15.6552834565
 30
0.0
 11
33.0299067374
 21
-14.163521421
 31
0.0
  0
LINE
  5
3AB
330
20A
100
AcDbEntity
  8
0
  6
Continuous
 62
     0
370
    18
100
AcDbLine
 10
31.1268180106
 20
0.3482508536
 30
0.0
 11
30.9124750442
 21
0.9371533138
 31
0.0
  0
LINE
  5
3AC
330
20A
100
AcDbEntity
  8
0
  6
Continuous
 62
     0
370
    18
100
AcDbLine
 10
33.2986459208
 20
-5.6187972884
 30
0.0
 11
32.7556889432
 21
-4.1270352529
 31
0.0
  0
LINE
  5
3AD
330
20A
100
AcDbEntity
  8
0
  6
Continuous
 62
     0
370
    18
100
AcDbLine
 10
34.9092918478
 20
-0.7609316332
 30
0.0
 11
34.6532990592
 21
-0.0575972269
 31
0.0
  0
ENDBLK
  5
20C
330
20A
100
AcDbEntity
  8
0
100
AcDbBlockEnd
  0
BLOCK
  5
3B0
330
3AF
100
AcDbEntity
  8
0
100
AcDbBlockBegin
  2
SW_HATCH_2
 70
     0
 10
0.0
 20
0.0
 30
0.0
  3
SW_HATCH_2
  1

  0
LINE
  5
3B2
330
3AF
100
AcDbEntity
  8
0
  6
Continuous
 62
     0
370
    18
100
AcDbLine
 10
0.0
 20
0.0
 30
0.0
 11
1.8995790773
 21
1.8995790773
 31
0.0
  0
LINE
  5
3B3
330
3AF
100
AcDbEntity
  8
0
  6
Continuous
 62
     0
370
    18
100
AcDbLine
 10
6.3897071378
 20
-2.5905489832
 30
0.0
 11
10.8798351984
 21
1.8995790773
 31
0.0
  0
LINE
  5
3B4
330
3AF
100
AcDbEntity
  8
0
  6
Continuous
 62
     0
370
    18
100
AcDbLine
 10
15.3699632589
 20
-2.5905489832
 30
0.0
 11
19.8600913194
 21
1.8995790773
 31
0.0
  0
LINE
  5
3B5
330
3AF
100
AcDbEntity
  8
0
  6
Continuous
 62
     0
370
    18
100
AcDbLine
 10
24.35021938
 20
-2.5905489832
 30
0.0
 11
28.8403474405
 21
1.8995790773
 31
0.0
  0
LINE
  5
3B6
330
3AF
100
AcDbEntity
  8
0
  6
Continuous
 62
     0
370
    18
100
AcDbLine
 10
33.330475501
 20
-2.5905489832
 30
0.0
 11
37.8206035616
 21
1.8995790773
 31
0.0
  0
LINE
  5
3B7
330
3AF
100
AcDbEntity
  8
0
  6
Continuous
 62
     0
370
    18
100
AcDbLine
 10
42.3107316221
 20
-2.5905489832
 30
0.0
 11
46.8008596826
 21
1.8995790773
 31
0.0
  0
LINE
  5
3B8
330
3AF
100
AcDbEntity
  8
0
  6
Continuous
 62
     0
370
    18
100
AcDbLine
 10
51.2909877432
 20
-2.5905489832
 30
0.0
 11
55.7811158037
 21
1.8995790773
 31
0.0
  0
LINE
  5
3B9
330
3AF
100
AcDbEntity
  8
0
  6
Continuous
 62
     0
370
    18
100
AcDbLine
 10
60.2712438642
 20
-2.5905489832
 30
0.0
 11
64.7613719248
 21
1.8995790773
 31
0.0
  0
LINE
  5
3BA
330
3AF
100
AcDbEntity
  8
0
  6
Continuous
 62
     0
370
    18
100
AcDbLine
 10
69.2514999853
 20
-2.5905489832
 30
0.0
 11
70.8216814335
 21
-1.020367535
 31
0.0
  0
LINE
  5
3BB
330
3AF
100
AcDbEntity
  8
0
  6
Continuous
 62
     0
370
    18
100
AcDbLine
 10
-0.3639186138
 20
3.0036774316
 30
0.0
 11
0.2157810546
 21
3.5833771
 31
0.0
  0
LINE
  5
3BC
330
3AF
100
AcDbEntity
  8
0
  6
Continuous
 62
     0
370
    18
100
AcDbLine
 10
4.7059091151
 20
-0.9067509605
 30
0.0
 11
9.1960371757
 21
3.5833771
 31
0.0
  0
LINE
  5
3BD
330
3AF
100
AcDbEntity
  8
0
  6
Continuous
 62
     0
370
    18
100
AcDbLine
 10
13.6861652362
 20
-0.9067509605
 30
0.0
 11
18.1762932967
 21
3.5833771
 31
0.0
  0
LINE
  5
3BE
330
3AF
100
AcDbEntity
  8
0
  6
Continuous
 62
     0
370
    18
100
AcDbLine
 10
22.6664213573
 20
-0.9067509605
 30
0.0
 11
27.1565494178
 21
3.5833771
 31
0.0
  0
LINE
  5
3BF
330
3AF
100
AcDbEntity
  8
0
  6
Continuous
 62
     0
370
    18
100
AcDbLine
 10
31.6466774783
 20
-0.9067509605
 30
0.0
 11
36.1368055389
 21
3.5833771
 31
0.0
  0
LINE
  5
3C0
330
3AF
100
AcDbEntity
  8
0
  6
Continuous
 62
     0
370
    18
100
AcDbLine
 10
40.6269335994
 20
-0.9067509605
 30
0.0
 11
45.1170616599
 21
3.5833771
 31
0.0
  0
LINE
  5
3C1
330
3AF
100
AcDbEntity
  8
0
  6
Continuous
 62
     0
370
    18
100
AcDbLine
 10
49.6071897205
 20
-0.9067509605
 30
0.0
 11
54.097317781
 21
3.5833771
 31
0.0
  0
LINE
  5
3C2
330
3AF
100
AcDbEntity
  8
0
  6
Continuous
 62
     0
370
    18
100
AcDbLine
 10
58.5874458415
 20
-0.9067509605
 30
0.0
 11
63.0775739021
 21
3.5833771
 31
0.0
  0
LINE
  5
3C3
330
3AF
100
AcDbEntity
  8
0
  6
Continuous
 62
     0
370
    18
100
AcDbLine
 10
67.5677019626
 20
-0.9067509605
 30
0.0
 11
69.2539770399
 21
0.7795241168
 31
0.0
  0
LINE
  5
3C4
330
3AF
100
AcDbEntity
  8
0
  6
Continuous
 62
     0
370
    18
100
AcDbLine
 10
3.0221110924
 20
0.7770470622
 30
0.0
 11
7.512239153
 21
5.2671751227
 31
0.0
  0
LINE
  5
3C5
330
3AF
100
AcDbEntity
  8
0
  6
Continuous
 62
     0
370
    18
100
AcDbLine
 10
12.0023672135
 20
0.7770470622
 30
0.0
 11
16.492495274
 21
5.2671751227
 31
0.0
  0
LINE
  5
3C6
330
3AF
100
AcDbEntity
  8
0
  6
Continuous
 62
     0
370
    18
100
AcDbLine
 10
5.9809058313
 20
-5.2444143201
 30
0.0
 11
7.512239153
 21
-3.7130809984
 31
0.0
  0
LINE
  5
3C7
330
3AF
100
AcDbEntity
  8
0
  6
Continuous
 62
     0
370
    18
100
AcDbLine
 10
20.9826233346
 20
0.7770470622
 30
0.0
 11
25.4727513951
 21
5.2671751227
 31
0.0
  0
LINE
  5
3C8
330
3AF
100
AcDbEntity
  8
0
  6
Continuous
 62
     0
370
    18
100
AcDbLine
 10
14.9611619523
 20
-5.2444143201
 30
0.0
 11
16.492495274
 21
-3.7130809984
 31
0.0
  0
LINE
  5
3C9
330
3AF
100
AcDbEntity
  8
0
  6
Continuous
 62
     0
370
    18
100
AcDbLine
 10
29.9628794556
 20
0.7770470622
 30
0.0
 11
34.4530075162
 21
5.2671751227
 31
0.0
  0
LINE
  5
3CA
330
3AF
100
AcDbEntity
  8
0
  6
Continuous
 62
     0
370
    18
100
AcDbLine
 10
23.9414180734
 20
-5.2444143201
 30
0.0
 11
25.4727513951
 21
-3.7130809984
 31
0.0
  0
LINE
  5
3CB
330
3AF
100
AcDbEntity
  8
0
  6
Continuous
 62
     0
370
    18
100
AcDbLine
 10
38.9431355767
 20
0.7770470622
 30
0.0
 11
43.4332636372
 21
5.2671751227
 31
0.0
  0
LINE
  5
3CC
330
3AF
100
AcDbEntity
  8
0
  6
Continuous
 62
     0
370
    18
100
AcDbLine
 10
32.9216741945
 20
-5.2444143201
 30
0.0
 11
34.4530075162
 21
-3.7130809984
 31
0.0
  0
LINE
  5
3CD
330
3AF
100
AcDbEntity
  8
0
  6
Continuous
 62
     0
370
    18
100
AcDbLine
 10
47.9233916978
 20
0.7770470622
 30
0.0
 11
52.4135197583
 21
5.2671751227
 31
0.0
  0
LINE
  5
3CE
330
3AF
100
AcDbEntity
  8
0
  6
Continuous
 62
     0
370
    18
100
AcDbLine
 10
41.9019303155
 20
-5.2444143201
 30
0.0
 11
43.4332636372
 21
-3.7130809984
 31
0.0
  0
LINE
  5
3CF
330
3AF
100
AcDbEntity
  8
0
  6
Continuous
 62
     0
370
    18
100
AcDbLine
 10
56.9036478188
 20
0.7770470622
 30
0.0
 11
61.3937758794
 21
5.2671751227
 31
0.0
  0
LINE
  5
3D0
330
3AF
100
AcDbEntity
  8
0
  6
Continuous
 62
     0
370
    18
100
AcDbLine
 10
50.8821864366
 20
-5.2444143201
 30
0.0
 11
52.4135197583
 21
-3.7130809984
 31
0.0
  0
LINE
  5
3D1
330
3AF
100
AcDbEntity
  8
0
  6
Continuous
 62
     0
370
    18
100
AcDbLine
 10
65.8839039399
 20
0.7770470622
 30
0.0
 11
67.6862726463
 21
2.5794157685
 31
0.0
  0
LINE
  5
3D2
330
3AF
100
AcDbEntity
  8
0
  6
Continuous
 62
     0
370
    18
100
AcDbLine
 10
59.8624425577
 20
-5.2444143201
 30
0.0
 11
61.3937758794
 21
-3.7130809984
 31
0.0
  0
LINE
  5
3D3
330
3AF
100
AcDbEntity
  8
0
  6
Continuous
 62
     0
370
    18
100
AcDbLine
 10
68.8426986788
 20
-5.2444143201
 30
0.0
 11
70.3740320004
 21
-3.7130809984
 31
0.0
  0
LINE
  5
3D4
330
3AF
100
AcDbEntity
  8
0
  6
Continuous
 62
     0
370
    18
100
AcDbLine
 10
1.1858483687
 20
-5.2444143201
 30
0.0
 11
0.5595161516
 21
-4.618082103
 31
0.0
  0
LINE
  5
3D5
330
3AF
100
AcDbEntity
  8
0
  6
Continuous
 62
     0
370
    18
100
AcDbLine
 10
3.0221110924
 20
1.8995790773
 30
0.0
 11
-0.4659321063
 21
5.3876222761
 31
0.0
  0
LINE
  5
3D6
330
3AF
100
AcDbEntity
  8
0
  6
Continuous
 62
     0
370
    18
100
AcDbLine
 10
10.1661044898
 20
-5.2444143201
 30
0.0
 11
7.512239153
 21
-2.5905489832
 31
0.0
  0
LINE
  5
3D7
330
3AF
100
AcDbEntity
  8
0
  6
Continuous
 62
     0
370
    18
100
AcDbLine
 10
12.0023672135
 20
1.8995790773
 30
0.0
 11
8.5143240147
 21
5.3876222761
 31
0.0
  0
LINE
  5
3D8
330
3AF
100
AcDbEntity
  8
0
  6
Continuous
 62
     0
370
    18
100
AcDbLine
 10
19.1463606109
 20
-5.2444143201
 30
0.0
 11
16.492495274
 21
-2.5905489832
 31
0.0
  0
LINE
  5
3D9
330
3AF
100
AcDbEntity
  8
0
  6
Continuous
 62
     0
370
    18
100
AcDbLine
 10
20.9826233346
 20
1.8995790773
 30
0.0
 11
17.4945801358
 21
5.3876222761
 31
0.0
  0
LINE
  5
3DA
330
3AF
100
AcDbEntity
  8
0
  6
Continuous
 62
     0
370
    18
100
AcDbLine
 10
28.1266167319
 20
-5.2444143201
 30
0.0
 11
25.4727513951
 21
-2.5905489832
 31
0.0
  0
LINE
  5
3DB
330
3AF
100
AcDbEntity
  8
0
  6
Continuous
 62
     0
370
    18
100
AcDbLine
 10
29.9628794556
 20
1.8995790773
 30
0.0
 11
26.4748362569
 21
5.3876222761
 31
0.0
  0
LINE
  5
3DC
330
3AF
100
AcDbEntity
  8
0
  6
Continuous
 62
     0
370
    18
100
AcDbLine
 10
37.106872853
 20
-5.2444143201
 30
0.0
 11
34.4530075162
 21
-2.5905489832
 31
0.0
  0
LINE
  5
3DD
330
3AF
100
AcDbEntity
  8
0
  6
Continuous
 62
     0
370
    18
100
AcDbLine
 10
38.9431355767
 20
1.8995790773
 30
0.0
 11
35.4550923779
 21
5.3876222761
 31
0.0
  0
LINE
  5
3DE
330
3AF
100
AcDbEntity
  8
0
  6
Continuous
 62
     0
370
    18
100
AcDbLine
 10
46.0871289741
 20
-5.2444143201
 30
0.0
 11
43.4332636372
 21
-2.5905489832
 31
0.0
  0
LINE
  5
3DF
330
3AF
100
AcDbEntity
  8
0
  6
Continuous
 62
     0
370
    18
100
AcDbLine
 10
47.9233916978
 20
1.8995790773
 30
0.0
 11
44.435348499
 21
5.3876222761
 31
0.0
  0
LINE
  5
3E0
330
3AF
100
AcDbEntity
  8
0
  6
Continuous
 62
     0
370
    18
100
AcDbLine
 10
55.0673850951
 20
-5.2444143201
 30
0.0
 11
52.4135197583
 21
-2.5905489832
 31
0.0
  0
LINE
  5
3E1
330
3AF
100
AcDbEntity
  8
0
  6
Continuous
 62
     0
370
    18
100
AcDbLine
 10
56.9036478188
 20
1.8995790773
 30
0.0
 11
53.4156046201
 21
5.3876222761
 31
0.0
  0
LINE
  5
3E2
330
3AF
100
AcDbEntity
  8
0
  6
Continuous
 62
     0
370
    18
100
AcDbLine
 10
64.0476412162
 20
-5.2444143201
 30
0.0
 11
61.3937758794
 21
-2.5905489832
 31
0.0
  0
LINE
  5
3E3
330
3AF
100
AcDbEntity
  8
0
  6
Continuous
 62
     0
370
    18
100
AcDbLine
 10
65.8839039399
 20
1.8995790773
 30
0.0
 11
62.3958607412
 21
5.3876222761
 31
0.0
  0
LINE
  5
3E4
330
3AF
100
AcDbEntity
  8
0
  6
Continuous
 62
     0
370
    18
100
AcDbLine
 10
73.0278973373
 20
-5.2444143201
 30
0.0
 11
70.3740320004
 21
-2.5905489832
 31
0.0
  0
LINE
  5
3E5
330
3AF
100
AcDbEntity
  8
0
  6
Continuous
 62
     0
370
    18
100
AcDbLine
 10
4.5534444141
 20
-5.2444143201
 30
0.0
 11
0.2157810546
 21
-0.9067509605
 31
0.0
  0
LINE
  5
3E6
330
3AF
100
AcDbEntity
  8
0
  6
Continuous
 62
     0
370
    18
100
AcDbLine
 10
4.7059091151
 20
3.5833771
 30
0.0
 11
2.9016639391
 21
5.3876222761
 31
0.0
  0
LINE
  5
3E7
330
3AF
100
AcDbEntity
  8
0
  6
Continuous
 62
     0
370
    18
100
AcDbLine
 10
13.5337005352
 20
-5.2444143201
 30
0.0
 11
9.1960371757
 21
-0.9067509605
 31
0.0
  0
LINE
  5
3E8
330
3AF
100
AcDbEntity
  8
0
  6
Continuous
 62
     0
370
    18
100
AcDbLine
 10
13.6861652362
 20
3.5833771
 30
0.0
 11
11.8819200601
 21
5.3876222761
 31
0.0
  0
LINE
  5
3E9
330
3AF
100
AcDbEntity
  8
0
  6
Continuous
 62
     0
370
    18
100
AcDbLine
 10
22.5139566563
 20
-5.2444143201
 30
0.0
 11
18.1762932967
 21
-0.9067509605
 31
0.0
  0
LINE
  5
3EA
330
3AF
100
AcDbEntity
  8
0
  6
Continuous
 62
     0
370
    18
100
AcDbLine
 10
22.6664213573
 20
3.5833771
 30
0.0
 11
20.8621761812
 21
5.3876222761
 31
0.0
  0
LINE
  5
3EB
330
3AF
100
AcDbEntity
  8
0
  6
Continuous
 62
     0
370
    18
100
AcDbLine
 10
31.4942127773
 20
-5.2444143201
 30
0.0
 11
27.1565494178
 21
-0.9067509605
 31
0.0
  0
LINE
  5
3EC
330
3AF
100
AcDbEntity
  8
0
  6
Continuous
 62
     0
370
    18
100
AcDbLine
 10
31.6466774783
 20
3.5833771
 30
0.0
 11
29.8424323023
 21
5.3876222761
 31
0.0
  0
LINE
  5
3ED
330
3AF
100
AcDbEntity
  8
0
  6
Continuous
 62
     0
370
    18
100
AcDbLine
 10
40.4744688984
 20
-5.2444143201
 30
0.0
 11
36.1368055389
 21
-0.9067509605
 31
0.0
  0
LINE
  5
3EE
330
3AF
100
AcDbEntity
  8
0
  6
Continuous
 62
     0
370
    18
100
AcDbLine
 10
40.6269335994
 20
3.5833771
 30
0.0
 11
38.8226884233
 21
5.3876222761
 31
0.0
  0
LINE
  5
3EF
330
3AF
100
AcDbEntity
  8
0
  6
Continuous
 62
     0
370
    18
100
AcDbLine
 10
49.4547250195
 20
-5.2444143201
 30
0.0
 11
45.1170616599
 21
-0.9067509605
 31
0.0
  0
LINE
  5
3F0
330
3AF
100
AcDbEntity
  8
0
  6
Continuous
 62
     0
370
    18
100
AcDbLine
 10
49.6071897205
 20
3.5833771
 30
0.0
 11
47.8029445444
 21
5.3876222761
 31
0.0
  0
LINE
  5
3F1
330
3AF
100
AcDbEntity
  8
0
  6
Continuous
 62
     0
370
    18
100
AcDbLine
 10
58.4349811405
 20
-5.2444143201
 30
0.0
 11
54.097317781
 21
-0.9067509605
 31
0.0
  0
LINE
  5
3F2
330
3AF
100
AcDbEntity
  8
0
  6
Continuous
 62
     0
370
    18
100
AcDbLine
 10
58.5874458415
 20
3.5833771
 30
0.0
 11
56.7832006655
 21
5.3876222761
 31
0.0
  0
LINE
  5
3F3
330
3AF
100
AcDbEntity
  8
0
  6
Continuous
 62
     0
370
    18
100
AcDbLine
 10
67.4152372616
 20
-5.2444143201
 30
0.0
 11
63.0775739021
 21
-0.9067509605
 31
0.0
  0
LINE
  5
3F4
330
3AF
100
AcDbEntity
  8
0
  6
Continuous
 62
     0
370
    18
100
AcDbLine
 10
6.3897071378
 20
-3.7130809984
 30
0.0
 11
1.8995790773
 21
0.7770470622
 31
0.0
  0
LINE
  5
3F5
330
3AF
100
AcDbEntity
  8
0
  6
Continuous
 62
     0
370
    18
100
AcDbLine
 10
6.3897071378
 20
5.2671751227
 30
0.0
 11
6.2692599845
 21
5.3876222761
 31
0.0
  0
LINE
  5
3F6
330
3AF
100
AcDbEntity
  8
0
  6
Continuous
 62
     0
370
    18
100
AcDbLine
 10
15.3699632589
 20
-3.7130809984
 30
0.0
 11
10.8798351984
 21
0.7770470622
 31
0.0
  0
LINE
  5
3F7
330
3AF
100
AcDbEntity
  8
0
  6
Continuous
 62
     0
370
    18
100
AcDbLine
 10
15.3699632589
 20
5.2671751227
 30
0.0
 11
15.2495161055
 21
5.3876222761
 31
0.0
  0
LINE
  5
3F8
330
3AF
100
AcDbEntity
  8
0
  6
Continuous
 62
     0
370
    18
100
AcDbLine
 10
24.35021938
 20
-3.7130809984
 30
0.0
 11
19.8600913194
 21
0.7770470622
 31
0.0
  0
LINE
  5
3F9
330
3AF
100
AcDbEntity
  8
0
  6
Continuous
 62
     0
370
    18
100
AcDbLine
 10
24.35021938
 20
5.2671751227
 30
0.0
 11
24.2297722266
 21
5.3876222761
 31
0.0
  0
LINE
  5
3FA
330
3AF
100
AcDbEntity
  8
0
  6
Continuous
 62
     0
370
    18
100
AcDbLine
 10
33.330475501
 20
-3.7130809984
 30
0.0
 11
28.8403474405
 21
0.7770470622
 31
0.0
  0
LINE
  5
3FB
330
3AF
100
AcDbEntity
  8
0
  6
Continuous
 62
     0
370
    18
100
AcDbLine
 10
33.330475501
 20
5.2671751227
 30
0.0
 11
33.2100283477
 21
5.3876222761
 31
0.0
  0
LINE
  5
3FC
330
3AF
100
AcDbEntity
  8
0
  6
Continuous
 62
     0
370
    18
100
AcDbLine
 10
42.3107316221
 20
-3.7130809984
 30
0.0
 11
37.8206035616
 21
0.7770470622
 31
0.0
  0
LINE
  5
3FD
330
3AF
100
AcDbEntity
  8
0
  6
Continuous
 62
     0
370
    18
100
AcDbLine
 10
42.3107316221
 20
5.2671751227
 30
0.0
 11
42.1902844687
 21
5.3876222761
 31
0.0
  0
LINE
  5
3FE
330
3AF
100
AcDbEntity
  8
0
  6
Continuous
 62
     0
370
    18
100
AcDbLine
 10
51.2909877432
 20
-3.7130809984
 30
0.0
 11
46.8008596826
 21
0.7770470622
 31
0.0
  0
LINE
  5
3FF
330
3AF
100
AcDbEntity
  8
0
  6
Continuous
 62
     0
370
    18
100
AcDbLine
 10
51.2909877432
 20
5.2671751227
 30
0.0
 11
51.1705405898
 21
5.3876222761
 31
0.0
  0
LINE
  5
400
330
3AF
100
AcDbEntity
  8
0
  6
Continuous
 62
     0
370
    18
100
AcDbLine
 10
60.2712438642
 20
-3.7130809984
 30
0.0
 11
55.7811158037
 21
0.7770470622
 31
0.0
  0
LINE
  5
401
330
3AF
100
AcDbEntity
  8
0
  6
Continuous
 62
     0
370
    18
100
AcDbLine
 10
60.2712438642
 20
5.2671751227
 30
0.0
 11
60.1507967109
 21
5.3876222761
 31
0.0
  0
LINE
  5
402
330
3AF
100
AcDbEntity
  8
0
  6
Continuous
 62
     0
370
    18
100
AcDbLine
 10
69.2514999853
 20
-3.7130809984
 30
0.0
 11
64.7613719248
 21
0.7770470622
 31
0.0
  0
ENDBLK
  5
3B1
330
3AF
100
AcDbEntity
  8
0
100
AcDbBlockEnd
  0
BLOCK
  5
406
330
405
100
AcDbEntity
  8
0
100
AcDbBlockBegin
  2
SW_HATCH_3
 70
     0
 10
0.0
 20
0.0
 30
0.0
  3
SW_HATCH_3
  1

  0
LINE
  5
408
330
405
100
AcDbEntity
  8
0
  6
Continuous
 62
     0
370
    18
100
AcDbLine
 10
0.0
 20
0.0
 30
0.0
 11
4.0236112777
 21
4.0236112777
 31
0.0
  0
LINE
  5
409
330
405
100
AcDbEntity
  8
0
  6
Continuous
 62
     0
370
    18
100
AcDbLine
 10
-8.6727881077
 20
-8.6727881077
 30
0.0
 11
-5.1422802769
 21
-5.1422802769
 31
0.0
  0
LINE
  5
40A
330
405
100
AcDbEntity
  8
0
  6
Continuous
 62
     0
370
    18
100
AcDbLine
 10
8.9802561211
 20
0.0
 30
0.0
 11
13.4703841816
 21
4.4901280605
 31
0.0
  0
LINE
  5
40B
330
405
100
AcDbEntity
  8
0
  6
Continuous
 62
     0
370
    18
100
AcDbLine
 10
0.4481945315
 20
-8.5320615896
 30
0.0
 11
4.4901280605
 21
-4.4901280605
 31
0.0
  0
LINE
  5
40C
330
405
100
AcDbEntity
  8
0
  6
Continuous
 62
     0
370
    18
100
AcDbLine
 10
-8.9802561211
 20
-17.9605122421
 30
0.0
 11
-4.4901280605
 21
-13.4703841816
 31
0.0
  0
LINE
  5
40D
330
405
100
AcDbEntity
  8
0
  6
Continuous
 62
     0
370
    18
100
AcDbLine
 10
26.9407683632
 20
8.9802561211
 30
0.0
 11
27.8311957996
 21
9.8706835575
 31
0.0
  0
LINE
  5
40E
330
405
100
AcDbEntity
  8
0
  6
Continuous
 62
     0
370
    18
100
AcDbLine
 10
17.9605122421
 20
0.0
 30
0.0
 11
22.4506403027
 21
4.4901280605
 31
0.0
  0
LINE
  5
40F
330
405
100
AcDbEntity
  8
0
  6
Continuous
 62
     0
370
    18
100
AcDbLine
 10
8.9802561211
 20
-8.9802561211
 30
0.0
 11
13.4703841816
 21
-4.4901280605
 31
0.0
  0
LINE
  5
410
330
405
100
AcDbEntity
  8
0
  6
Continuous
 62
     0
370
    18
100
AcDbLine
 10
0.0
 20
-17.9605122421
 30
0.0
 11
4.4901280605
 21
-13.4703841816
 31
0.0
  0
LINE
  5
411
330
405
100
AcDbEntity
  8
0
  6
Continuous
 62
     0
370
    18
100
AcDbLine
 10
-8.9802561211
 20
-26.9407683632
 30
0.0
 11
-4.4901280605
 21
-22.4506403027
 31
0.0
  0
LINE
  5
412
330
405
100
AcDbEntity
  8
0
  6
Continuous
 62
     0
370
    18
100
AcDbLine
 10
8.9802561211
 20
-17.9605122421
 30
0.0
 11
9.4998137173
 21
-17.4409546459
 31
0.0
  0
LINE
  5
413
330
405
100
AcDbEntity
  8
0
  6
Continuous
 62
     0
370
    18
100
AcDbLine
 10
0.0
 20
-26.9407683632
 30
0.0
 11
4.4901280605
 21
-22.4506403027
 31
0.0
  0
LINE
  5
414
330
405
100
AcDbEntity
  8
0
  6
Continuous
 62
     0
370
    18
100
AcDbLine
 10
-8.9802561211
 20
-35.9210244843
 30
0.0
 11
-4.4901280605
 21
-31.4308964237
 31
0.0
  0
LINE
  5
415
330
405
100
AcDbEntity
  8
0
  6
Continuous
 62
     0
370
    18
100
AcDbLine
 10
35.9210244843
 20
8.9802561211
 30
0.0
 11
39.9143049795
 21
12.9735366163
 31
0.0
  0
LINE
  5
416
330
405
100
AcDbEntity
  8
0
  6
Continuous
 62
     0
370
    18
100
AcDbLine
 10
26.9407683632
 20
0.0
 30
0.0
 11
31.4308964237
 21
4.4901280605
 31
0.0
  0
LINE
  5
417
330
405
100
AcDbEntity
  8
0
  6
Continuous
 62
     0
370
    18
100
AcDbLine
 10
17.9605122421
 20
-8.9802561211
 30
0.0
 11
22.4506403027
 21
-4.4901280605
 31
0.0
  0
LINE
  5
418
330
405
100
AcDbEntity
  8
0
  6
Continuous
 62
     0
370
    18
100
AcDbLine
 10
12.7988582582
 20
-14.141910105
 30
0.0
 11
13.4703841816
 21
-13.4703841816
 31
0.0
  0
LINE
  5
419
330
405
100
AcDbEntity
  8
0
  6
Continuous
 62
     0
370
    18
100
AcDbLine
 10
0.0
 20
-35.9210244843
 30
0.0
 11
4.4901280605
 21
-31.4308964237
 31
0.0
  0
LINE
  5
41A
330
405
100
AcDbEntity
  8
0
  6
Continuous
 62
     0
370
    18
100
AcDbLine
 10
-8.9802561211
 20
-44.9012806053
 30
0.0
 11
-4.4901280605
 21
-40.4111525448
 31
0.0
  0
LINE
  5
41B
330
405
100
AcDbEntity
  8
0
  6
Continuous
 62
     0
370
    18
100
AcDbLine
 10
44.9012806053
 20
8.9802561211
 30
0.0
 11
49.3914086659
 21
13.4703841816
 31
0.0
  0
LINE
  5
41C
330
405
100
AcDbEntity
  8
0
  6
Continuous
 62
     0
370
    18
100
AcDbLine
 10
35.9210244843
 20
0.0
 30
0.0
 11
40.4111525448
 21
4.4901280605
 31
0.0
  0
LINE
  5
41D
330
405
100
AcDbEntity
  8
0
  6
Continuous
 62
     0
370
    18
100
AcDbLine
 10
26.9407683632
 20
-8.9802561211
 30
0.0
 11
31.4308964237
 21
-4.4901280605
 31
0.0
  0
LINE
  5
41E
330
405
100
AcDbEntity
  8
0
  6
Continuous
 62
     0
370
    18
100
AcDbLine
 10
0.0
 20
-44.9012806053
 30
0.0
 11
4.4901280605
 21
-40.4111525448
 31
0.0
  0
LINE
  5
41F
330
405
100
AcDbEntity
  8
0
  6
Continuous
 62
     0
370
    18
100
AcDbLine
 10
-8.9802561211
 20
-53.8815367264
 30
0.0
 11
-4.4901280605
 21
-49.3914086659
 31
0.0
  0
LINE
  5
420
330
405
100
AcDbEntity
  8
0
  6
Continuous
 62
     0
370
    18
100
AcDbLine
 10
62.8617928475
 20
17.9605122421
 30
0.0
 11
64.0805233393
 21
19.179242734
 31
0.0
  0
LINE
  5
421
330
405
100
AcDbEntity
  8
0
  6
Continuous
 62
     0
370
    18
100
AcDbLine
 10
53.8815367264
 20
8.9802561211
 30
0.0
 11
58.3716647869
 21
13.4703841816
 31
0.0
  0
LINE
  5
422
330
405
100
AcDbEntity
  8
0
  6
Continuous
 62
     0
370
    18
100
AcDbLine
 10
44.9012806053
 20
0.0
 30
0.0
 11
49.3914086659
 21
4.4901280605
 31
0.0
  0
LINE
  5
423
330
405
100
AcDbEntity
  8
0
  6
Continuous
 62
     0
370
    18
100
AcDbLine
 10
38.4641841793
 20
-6.4370964261
 30
0.0
 11
40.4111525448
 21
-4.4901280605
 31
0.0
  0
LINE
  5
424
330
405
100
AcDbEntity
  8
0
  6
Continuous
 62
     0
370
    18
100
AcDbLine
 10
0.0
 20
-53.8815367264
 30
0.0
 11
4.4901280605
 21
-49.3914086659
 31
0.0
  0
LINE
  5
425
330
405
100
AcDbEntity
  8
0
  6
Continuous
 62
     0
370
    18
100
AcDbLine
 10
-8.9802561211
 20
-62.8617928475
 30
0.0
 11
-4.4901280605
 21
-58.3716647869
 31
0.0
  0
LINE
  5
426
330
405
100
AcDbEntity
  8
0
  6
Continuous
 62
     0
370
    18
100
AcDbLine
 10
71.8420489686
 20
17.9605122421
 30
0.0
 11
76.1636325193
 21
22.2820957928
 31
0.0
  0
LINE
  5
427
330
405
100
AcDbEntity
  8
0
  6
Continuous
 62
     0
370
    18
100
AcDbLine
 10
62.8617928475
 20
8.9802561211
 30
0.0
 11
67.351920908
 21
13.4703841816
 31
0.0
  0
LINE
  5
428
330
405
100
AcDbEntity
  8
0
  6
Continuous
 62
     0
370
    18
100
AcDbLine
 10
53.8815367264
 20
0.0
 30
0.0
 11
58.3716647869
 21
4.4901280605
 31
0.0
  0
LINE
  5
429
330
405
100
AcDbEntity
  8
0
  6
Continuous
 62
     0
370
    18
100
AcDbLine
 10
0.0
 20
-62.8617928475
 30
0.0
 11
4.4901280605
 21
-58.3716647869
 31
0.0
  0
LINE
  5
42A
330
405
100
AcDbEntity
  8
0
  6
Continuous
 62
     0
370
    18
100
AcDbLine
 10
-8.9802561211
 20
-71.8420489686
 30
0.0
 11
-4.4901280605
 21
-67.351920908
 31
0.0
  0
LINE
  5
42B
330
405
100
AcDbEntity
  8
0
  6
Continuous
 62
     0
370
    18
100
AcDbLine
 10
-14.149251171
 20
-77.0110440185
 30
0.0
 11
-13.4703841816
 21
-76.3321770291
 31
0.0
  0
LINE
  5
42C
330
405
100
AcDbEntity
  8
0
  6
Continuous
 62
     0
370
    18
100
AcDbLine
 10
80.8223050896
 20
17.9605122421
 30
0.0
 11
85.3124331502
 21
22.4506403027
 31
0.0
  0
LINE
  5
42D
330
405
100
AcDbEntity
  8
0
  6
Continuous
 62
     0
370
    18
100
AcDbLine
 10
71.8420489686
 20
8.9802561211
 30
0.0
 11
76.3321770291
 21
13.4703841816
 31
0.0
  0
LINE
  5
42E
330
405
100
AcDbEntity
  8
0
  6
Continuous
 62
     0
370
    18
100
AcDbLine
 10
63.7514777219
 20
0.8896848744
 30
0.0
 11
67.351920908
 21
4.4901280605
 31
0.0
  0
LINE
  5
42F
330
405
100
AcDbEntity
  8
0
  6
Continuous
 62
     0
370
    18
100
AcDbLine
 10
0.0
 20
-71.8420489686
 30
0.0
 11
4.4901280605
 21
-67.351920908
 31
0.0
  0
LINE
  5
430
330
405
100
AcDbEntity
  8
0
  6
Continuous
 62
     0
370
    18
100
AcDbLine
 10
-8.9802561211
 20
-80.8223050896
 30
0.0
 11
-4.4901280605
 21
-76.3321770291
 31
0.0
  0
LINE
  5
431
330
405
100
AcDbEntity
  8
0
  6
Continuous
 62
     0
370
    18
100
AcDbLine
 10
-14.9316030372
 20
-86.7736520058
 30
0.0
 11
-13.4703841816
 21
-85.3124331502
 31
0.0
  0
LINE
  5
432
330
405
100
AcDbEntity
  8
0
  6
Continuous
 62
     0
370
    18
100
AcDbLine
 10
89.8025612107
 20
17.9605122421
 30
0.0
 11
94.2926892712
 21
22.4506403027
 31
0.0
  0
LINE
  5
433
330
405
100
AcDbEntity
  8
0
  6
Continuous
 62
     0
370
    18
100
AcDbLine
 10
80.8223050896
 20
8.9802561211
 30
0.0
 11
85.3124331502
 21
13.4703841816
 31
0.0
  0
LINE
  5
434
330
405
100
AcDbEntity
  8
0
  6
Continuous
 62
     0
370
    18
100
AcDbLine
 10
0.0
 20
-80.8223050896
 30
0.0
 11
4.4901280605
 21
-76.3321770291
 31
0.0
  0
LINE
  5
435
330
405
100
AcDbEntity
  8
0
  6
Continuous
 62
     0
370
    18
100
AcDbLine
 10
-8.9802561211
 20
-89.8025612107
 30
0.0
 11
-4.4901280605
 21
-85.3124331502
 31
0.0
  0
LINE
  5
436
330
405
100
AcDbEntity
  8
0
  6
Continuous
 62
     0
370
    18
100
AcDbLine
 10
-15.7139549034
 20
-96.536259993
 30
0.0
 11
-13.4703841816
 21
-94.2926892712
 31
0.0
  0
LINE
  5
437
330
405
100
AcDbEntity
  8
0
  6
Continuous
 62
     0
370
    18
100
AcDbLine
 10
89.8025612107
 20
8.9802561211
 30
0.0
 11
94.2926892712
 21
13.4703841816
 31
0.0
  0
LINE
  5
438
330
405
100
AcDbEntity
  8
0
  6
Continuous
 62
     0
370
    18
100
AcDbLine
 10
0.0
 20
-89.8025612107
 30
0.0
 11
4.4901280605
 21
-85.3124331502
 31
0.0
  0
LINE
  5
439
330
405
100
AcDbEntity
  8
0
  6
Continuous
 62
     0
370
    18
100
AcDbLine
 10
-8.9802561211
 20
-98.7828173318
 30
0.0
 11
-4.4901280605
 21
-94.2926892712
 31
0.0
  0
LINE
  5
43A
330
405
100
AcDbEntity
  8
0
  6
Continuous
 62
     0
370
    18
100
AcDbLine
 10
-15.7467002721
 20
-105.5492614828
 30
0.0
 11
-13.4703841816
 21
-103.2729453923
 31
0.0
  0
LINE
  5
43B
330
405
100
AcDbEntity
  8
0
  6
Continuous
 62
     0
370
    18
100
AcDbLine
 10
0.0
 20
-98.7828173318
 30
0.0
 11
4.4592853082
 21
-94.3235320235
 31
0.0
  0
LINE
  5
43C
330
405
100
AcDbEntity
  8
0
  6
Continuous
 62
     0
370
    18
100
AcDbLine
 10
-8.9802561211
 20
-107.7630734528
 30
0.0
 11
-8.2105904846
 21
-106.9934078164
 31
0.0
  0
LINE
  5
43D
330
405
100
AcDbEntity
  8
0
  6
Continuous
 62
     0
370
    18
100
AcDbLine
 10
-16.8263190355
 20
-115.6091363672
 30
0.0
 11
-13.4703841816
 21
-112.2532015134
 31
0.0
  0
LINE
  5
43E
330
405
100
AcDbEntity
  8
0
  6
Continuous
 62
     0
370
    18
100
AcDbLine
 10
0.0
 20
-107.7630734528
 30
0.0
 11
0.2716937599
 21
-107.4913796929
 31
0.0
  0
LINE
  5
43F
330
405
100
AcDbEntity
  8
0
  6
Continuous
 62
     0
370
    18
100
AcDbLine
 10
-8.9802561211
 20
-116.7433295739
 30
0.0
 11
-4.4901280605
 21
-112.2532015134
 31
0.0
  0
LINE
  5
440
330
405
100
AcDbEntity
  8
0
  6
Continuous
 62
     0
370
    18
100
AcDbLine
 10
-16.8263190355
 20
-124.5893924883
 30
0.0
 11
-13.4703841816
 21
-121.2334576344
 31
0.0
  0
LINE
  5
441
330
405
100
AcDbEntity
  8
0
  6
Continuous
 62
     0
370
    18
100
AcDbLine
 10
0.0
 20
-116.7433295739
 30
0.0
 11
3.4277375061
 21
-113.3155920678
 31
0.0
  0
LINE
  5
442
330
405
100
AcDbEntity
  8
0
  6
Continuous
 62
     0
370
    18
100
AcDbLine
 10
-8.9802561211
 20
-125.723585695
 30
0.0
 11
-4.4901280605
 21
-121.2334576344
 31
0.0
  0
LINE
  5
443
330
405
100
AcDbEntity
  8
0
  6
Continuous
 62
     0
370
    18
100
AcDbLine
 10
-13.6736092158
 20
-130.4169387897
 30
0.0
 11
-13.4703841816
 21
-130.2137137555
 31
0.0
  0
LINE
  5
444
330
405
100
AcDbEntity
  8
0
  6
Continuous
 62
     0
370
    18
100
AcDbLine
 10
0.0
 20
-125.723585695
 30
0.0
 11
3.4277375061
 21
-122.2958481889
 31
0.0
  0
LINE
  5
445
330
405
100
AcDbEntity
  8
0
  6
Continuous
 62
     0
370
    18
100
AcDbLine
 10
-4.6933530947
 20
-130.4169387897
 30
0.0
 11
-4.4901280605
 21
-130.2137137555
 31
0.0
  0
LINE
  5
446
330
405
100
AcDbEntity
  8
0
  6
Continuous
 62
     0
370
    18
100
AcDbLine
 10
-1.6837980227
 20
1.6837980227
 30
0.0
 11
-0.599244341
 21
2.7683517044
 31
0.0
  0
LINE
  5
447
330
405
100
AcDbEntity
  8
0
  6
Continuous
 62
     0
370
    18
100
AcDbLine
 10
-8.3794061579
 20
-5.0118101125
 30
0.0
 11
-6.9725420261
 21
-3.6049459807
 31
0.0
  0
LINE
  5
448
330
405
100
AcDbEntity
  8
0
  6
Continuous
 62
     0
370
    18
100
AcDbLine
 10
7.2964580984
 20
1.6837980227
 30
0.0
 11
11.2169206772
 21
5.6042606016
 31
0.0
  0
LINE
  5
449
330
405
100
AcDbEntity
  8
0
  6
Continuous
 62
     0
370
    18
100
AcDbLine
 10
-1.3820672177
 20
-6.9947272934
 30
0.0
 11
2.8063300378
 21
-2.8063300378
 31
0.0
  0
LINE
  5
44A
330
405
100
AcDbEntity
  8
0
  6
Continuous
 62
     0
370
    18
100
AcDbLine
 10
-9.1617580241
 20
-14.7744180998
 30
0.0
 11
-6.1739260832
 21
-11.7865861589
 31
0.0
  0
LINE
  5
44B
330
405
100
AcDbEntity
  8
0
  6
Continuous
 62
     0
370
    18
100
AcDbLine
 10
16.2767142194
 20
1.6837980227
 30
0.0
 11
20.76684228
 21
6.1739260832
 31
0.0
  0
LINE
  5
44C
330
405
100
AcDbEntity
  8
0
  6
Continuous
 62
     0
370
    18
100
AcDbLine
 10
7.2964580984
 20
-7.2964580984
 30
0.0
 11
11.7865861589
 21
-2.8063300378
 31
0.0
  0
LINE
  5
44D
330
405
100
AcDbEntity
  8
0
  6
Continuous
 62
     0
370
    18
100
AcDbLine
 10
-1.6837980227
 20
-16.2767142194
 30
0.0
 11
2.78885397
 21
-11.8040622268
 31
0.0
  0
LINE
  5
44E
330
405
100
AcDbEntity
  8
0
  6
Continuous
 62
     0
370
    18
100
AcDbLine
 10
-9.9441098903
 20
-24.537026087
 30
0.0
 11
-6.1739260832
 21
-20.76684228
 31
0.0
  0
LINE
  5
44F
330
405
100
AcDbEntity
  8
0
  6
Continuous
 62
     0
370
    18
100
AcDbLine
 10
34.2372264616
 20
10.6640541438
 30
0.0
 11
35.3831390371
 21
11.8099667193
 31
0.0
  0
LINE
  5
450
330
405
100
AcDbEntity
  8
0
  6
Continuous
 62
     0
370
    18
100
AcDbLine
 10
25.2569703405
 20
1.6837980227
 30
0.0
 11
29.747098401
 21
6.1739260832
 31
0.0
  0
LINE
  5
451
330
405
100
AcDbEntity
  8
0
  6
Continuous
 62
     0
370
    18
100
AcDbLine
 10
16.2767142194
 20
-7.2964580984
 30
0.0
 11
20.76684228
 21
-2.8063300378
 31
0.0
  0
LINE
  5
452
330
405
100
AcDbEntity
  8
0
  6
Continuous
 62
     0
370
    18
100
AcDbLine
 10
7.2964580984
 20
-16.2767142194
 30
0.0
 11
7.669551968
 21
-15.9036203498
 31
0.0
  0
LINE
  5
453
330
405
100
AcDbEntity
  8
0
  6
Continuous
 62
     0
370
    18
100
AcDbLine
 10
-1.6837980227
 20
-25.2569703405
 30
0.0
 11
2.8063300378
 21
-20.76684228
 31
0.0
  0
LINE
  5
454
330
405
100
AcDbEntity
  8
0
  6
Continuous
 62
     0
370
    18
100
AcDbLine
 10
-10.6640541438
 20
-34.2372264616
 30
0.0
 11
-6.1739260832
 21
-29.747098401
 31
0.0
  0
LINE
  5
455
330
405
100
AcDbEntity
  8
0
  6
Continuous
 62
     0
370
    18
100
AcDbLine
 10
7.2964580984
 20
-25.2569703405
 30
0.0
 11
8.9951650235
 21
-23.5582634154
 31
0.0
  0
LINE
  5
456
330
405
100
AcDbEntity
  8
0
  6
Continuous
 62
     0
370
    18
100
AcDbLine
 10
-1.6837980227
 20
-34.2372264616
 30
0.0
 11
2.8063300378
 21
-29.747098401
 31
0.0
  0
LINE
  5
457
330
405
100
AcDbEntity
  8
0
  6
Continuous
 62
     0
370
    18
100
AcDbLine
 10
-10.6640541438
 20
-43.2174825826
 30
0.0
 11
-6.1739260832
 21
-38.7273545221
 31
0.0
  0
LINE
  5
458
330
405
100
AcDbEntity
  8
0
  6
Continuous
 62
     0
370
    18
100
AcDbLine
 10
43.2174825826
 20
10.6640541438
 30
0.0
 11
47.466248217
 21
14.9128197781
 31
0.0
  0
LINE
  5
459
330
405
100
AcDbEntity
  8
0
  6
Continuous
 62
     0
370
    18
100
AcDbLine
 10
34.2372264616
 20
1.6837980227
 30
0.0
 11
38.7273545221
 21
6.1739260832
 31
0.0
  0
LINE
  5
45A
330
405
100
AcDbEntity
  8
0
  6
Continuous
 62
     0
370
    18
100
AcDbLine
 10
25.2569703405
 20
-7.2964580984
 30
0.0
 11
29.747098401
 21
-2.8063300378
 31
0.0
  0
LINE
  5
45B
330
405
100
AcDbEntity
  8
0
  6
Continuous
 62
     0
370
    18
100
AcDbLine
 10
7.2964580984
 20
-34.2372264616
 30
0.0
 11
8.3801304858
 21
-33.1535540741
 31
0.0
  0
LINE
  5
45C
330
405
100
AcDbEntity
  8
0
  6
Continuous
 62
     0
370
    18
100
AcDbLine
 10
-1.6837980227
 20
-43.2174825826
 30
0.0
 11
2.8063300378
 21
-38.7273545221
 31
0.0
  0
LINE
  5
45D
330
405
100
AcDbEntity
  8
0
  6
Continuous
 62
     0
370
    18
100
AcDbLine
 10
-10.6640541438
 20
-52.1977387037
 30
0.0
 11
-6.1739260832
 21
-47.7076106432
 31
0.0
  0
LINE
  5
45E
330
405
100
AcDbEntity
  8
0
  6
Continuous
 62
     0
370
    18
100
AcDbLine
 10
52.1977387037
 20
10.6640541438
 30
0.0
 11
56.6878667642
 21
15.1541822043
 31
0.0
  0
LINE
  5
45F
330
405
100
AcDbEntity
  8
0
  6
Continuous
 62
     0
370
    18
100
AcDbLine
 10
43.2174825826
 20
1.6837980227
 30
0.0
 11
47.7076106432
 21
6.1739260832
 31
0.0
  0
LINE
  5
460
330
405
100
AcDbEntity
  8
0
  6
Continuous
 62
     0
370
    18
100
AcDbLine
 10
34.2372264616
 20
-7.2964580984
 30
0.0
 11
38.7273545221
 21
-2.8063300378
 31
0.0
  0
LINE
  5
461
330
405
100
AcDbEntity
  8
0
  6
Continuous
 62
     0
370
    18
100
AcDbLine
 10
7.2964580984
 20
-43.2174825826
 30
0.0
 11
7.7650959482
 21
-42.7488447328
 31
0.0
  0
LINE
  5
462
330
405
100
AcDbEntity
  8
0
  6
Continuous
 62
     0
370
    18
100
AcDbLine
 10
-1.6837980227
 20
-52.1977387037
 30
0.0
 11
2.8063300378
 21
-47.7076106432
 31
0.0
  0
LINE
  5
463
330
405
100
AcDbEntity
  8
0
  6
Continuous
 62
     0
370
    18
100
AcDbLine
 10
-10.6640541438
 20
-61.1779948248
 30
0.0
 11
-6.1739260832
 21
-56.6878667642
 31
0.0
  0
LINE
  5
464
330
405
100
AcDbEntity
  8
0
  6
Continuous
 62
     0
370
    18
100
AcDbLine
 10
70.1582509459
 20
19.6443102648
 30
0.0
 11
71.6324665768
 21
21.1185258958
 31
0.0
  0
LINE
  5
465
330
405
100
AcDbEntity
  8
0
  6
Continuous
 62
     0
370
    18
100
AcDbLine
 10
61.1779948248
 20
10.6640541438
 30
0.0
 11
65.6681228853
 21
15.1541822043
 31
0.0
  0
LINE
  5
466
330
405
100
AcDbEntity
  8
0
  6
Continuous
 62
     0
370
    18
100
AcDbLine
 10
52.1977387037
 20
1.6837980227
 30
0.0
 11
56.6878667642
 21
6.1739260832
 31
0.0
  0
LINE
  5
467
330
405
100
AcDbEntity
  8
0
  6
Continuous
 62
     0
370
    18
100
AcDbLine
 10
46.3664634113
 20
-4.1474772697
 30
0.0
 11
47.7076106432
 21
-2.8063300378
 31
0.0
  0
LINE
  5
468
330
405
100
AcDbEntity
  8
0
  6
Continuous
 62
     0
370
    18
100
AcDbLine
 10
-1.6837980227
 20
-61.1779948248
 30
0.0
 11
2.178167288
 21
-57.3160295141
 31
0.0
  0
LINE
  5
469
330
405
100
AcDbEntity
  8
0
  6
Continuous
 62
     0
370
    18
100
AcDbLine
 10
-10.6640541438
 20
-70.1582509459
 30
0.0
 11
-6.1739260832
 21
-65.6681228853
 31
0.0
  0
LINE
  5
46A
330
405
100
AcDbEntity
  8
0
  6
Continuous
 62
     0
370
    18
100
AcDbLine
 10
79.1385070669
 20
19.6443102648
 30
0.0
 11
83.6286351275
 21
24.1344383254
 31
0.0
  0
LINE
  5
46B
330
405
100
AcDbEntity
  8
0
  6
Continuous
 62
     0
370
    18
100
AcDbLine
 10
70.1582509459
 20
10.6640541438
 30
0.0
 11
74.6483790064
 21
15.1541822043
 31
0.0
  0
LINE
  5
46C
330
405
100
AcDbEntity
  8
0
  6
Continuous
 62
     0
370
    18
100
AcDbLine
 10
61.1779948248
 20
1.6837980227
 30
0.0
 11
65.6681228853
 21
6.1739260832
 31
0.0
  0
LINE
  5
46D
330
405
100
AcDbEntity
  8
0
  6
Continuous
 62
     0
370
    18
100
AcDbLine
 10
-1.6837980227
 20
-70.1582509459
 30
0.0
 11
2.8063300378
 21
-65.6681228853
 31
0.0
  0
LINE
  5
46E
330
405
100
AcDbEntity
  8
0
  6
Continuous
 62
     0
370
    18
100
AcDbLine
 10
-10.6640541438
 20
-79.1385070669
 30
0.0
 11
-6.1739260832
 21
-74.6483790064
 31
0.0
  0
LINE
  5
46F
330
405
100
AcDbEntity
  8
0
  6
Continuous
 62
     0
370
    18
100
AcDbLine
 10
88.118763188
 20
19.6443102648
 30
0.0
 11
92.6088912485
 21
24.1344383254
 31
0.0
  0
LINE
  5
470
330
405
100
AcDbEntity
  8
0
  6
Continuous
 62
     0
370
    18
100
AcDbLine
 10
79.1385070669
 20
10.6640541438
 30
0.0
 11
83.6286351275
 21
15.1541822043
 31
0.0
  0
LINE
  5
471
330
405
100
AcDbEntity
  8
0
  6
Continuous
 62
     0
370
    18
100
AcDbLine
 10
71.653756954
 20
3.1793040308
 30
0.0
 11
74.6483790064
 21
6.1739260832
 31
0.0
  0
LINE
  5
472
330
405
100
AcDbEntity
  8
0
  6
Continuous
 62
     0
370
    18
100
AcDbLine
 10
-1.6837980227
 20
-79.1385070669
 30
0.0
 11
2.8063300378
 21
-74.6483790064
 31
0.0
  0
LINE
  5
473
330
405
100
AcDbEntity
  8
0
  6
Continuous
 62
     0
370
    18
100
AcDbLine
 10
-10.6640541438
 20
-88.118763188
 30
0.0
 11
-6.1739260832
 21
-83.6286351275
 31
0.0
  0
LINE
  5
474
330
405
100
AcDbEntity
  8
0
  6
Continuous
 62
     0
370
    18
100
AcDbLine
 10
-15.4205729536
 20
-92.8752819978
 30
0.0
 11
-15.1541822043
 21
-92.6088912485
 31
0.0
  0
LINE
  5
475
330
405
100
AcDbEntity
  8
0
  6
Continuous
 62
     0
370
    18
100
AcDbLine
 10
97.0990193091
 20
19.6443102648
 30
0.0
 11
98.6032880817
 21
21.1485790374
 31
0.0
  0
LINE
  5
476
330
405
100
AcDbEntity
  8
0
  6
Continuous
 62
     0
370
    18
100
AcDbLine
 10
88.118763188
 20
10.6640541438
 30
0.0
 11
92.6088912485
 21
15.1541822043
 31
0.0
  0
LINE
  5
477
330
405
100
AcDbEntity
  8
0
  6
Continuous
 62
     0
370
    18
100
AcDbLine
 10
-1.6837980227
 20
-88.118763188
 30
0.0
 11
2.8063300378
 21
-83.6286351275
 31
0.0
  0
LINE
  5
478
330
405
100
AcDbEntity
  8
0
  6
Continuous
 62
     0
370
    18
100
AcDbLine
 10
-10.6640541438
 20
-97.0990193091
 30
0.0
 11
-6.1739260832
 21
-92.6088912485
 31
0.0
  0
LINE
  5
479
330
405
100
AcDbEntity
  8
0
  6
Continuous
 62
     0
370
    18
100
AcDbLine
 10
-16.2029248198
 20
-102.637889985
 30
0.0
 11
-15.1541822043
 21
-101.5891473696
 31
0.0
  0
LINE
  5
47A
330
405
100
AcDbEntity
  8
0
  6
Continuous
 62
     0
370
    18
100
AcDbLine
 10
97.0990193091
 20
10.6640541438
 30
0.0
 11
98.6032880817
 21
12.1683229164
 31
0.0
  0
LINE
  5
47B
330
405
100
AcDbEntity
  8
0
  6
Continuous
 62
     0
370
    18
100
AcDbLine
 10
-1.6837980227
 20
-97.0990193091
 30
0.0
 11
2.8063300378
 21
-92.6088912485
 31
0.0
  0
LINE
  5
47C
330
405
100
AcDbEntity
  8
0
  6
Continuous
 62
     0
370
    18
100
AcDbLine
 10
-10.4452726193
 20
-105.8604939056
 30
0.0
 11
-6.1739260832
 21
-101.5891473696
 31
0.0
  0
LINE
  5
47D
330
405
100
AcDbEntity
  8
0
  6
Continuous
 62
     0
370
    18
100
AcDbLine
 10
-16.8263190355
 20
-112.2415403218
 30
0.0
 11
-15.1541822043
 21
-110.5694034907
 31
0.0
  0
LINE
  5
47E
330
405
100
AcDbEntity
  8
0
  6
Continuous
 62
     0
370
    18
100
AcDbLine
 10
-1.6837980227
 20
-106.0792754301
 30
0.0
 11
2.8063300378
 21
-101.5891473696
 31
0.0
  0
LINE
  5
47F
330
405
100
AcDbEntity
  8
0
  6
Continuous
 62
     0
370
    18
100
AcDbLine
 10
-10.6640541438
 20
-115.0595315512
 30
0.0
 11
-6.1739260832
 21
-110.5694034907
 31
0.0
  0
LINE
  5
480
330
405
100
AcDbEntity
  8
0
  6
Continuous
 62
     0
370
    18
100
AcDbLine
 10
-16.8263190355
 20
-121.2217964429
 30
0.0
 11
-15.1541822043
 21
-119.5496596117
 31
0.0
  0
LINE
  5
481
330
405
100
AcDbEntity
  8
0
  6
Continuous
 62
     0
370
    18
100
AcDbLine
 10
-1.6837980227
 20
-115.0595315512
 30
0.0
 11
2.8063300378
 21
-110.5694034907
 31
0.0
  0
LINE
  5
482
330
405
100
AcDbEntity
  8
0
  6
Continuous
 62
     0
370
    18
100
AcDbLine
 10
-10.6640541438
 20
-124.0397876723
 30
0.0
 11
-6.1739260832
 21
-119.5496596117
 31
0.0
  0
LINE
  5
483
330
405
100
AcDbEntity
  8
0
  6
Continuous
 62
     0
370
    18
100
AcDbLine
 10
-16.8263190355
 20
-130.202052564
 30
0.0
 11
-15.1541822043
 21
-128.5299157328
 31
0.0
  0
LINE
  5
484
330
405
100
AcDbEntity
  8
0
  6
Continuous
 62
     0
370
    18
100
AcDbLine
 10
-1.6837980227
 20
-124.0397876723
 30
0.0
 11
2.8063300378
 21
-119.5496596117
 31
0.0
  0
LINE
  5
485
330
405
100
AcDbEntity
  8
0
  6
Continuous
 62
     0
370
    18
100
AcDbLine
 10
-8.0609491401
 20
-130.4169387897
 30
0.0
 11
-6.1739260832
 21
-128.5299157328
 31
0.0
  0
LINE
  5
486
330
405
100
AcDbEntity
  8
0
  6
Continuous
 62
     0
370
    18
100
AcDbLine
 10
0.919306981
 20
-130.4169387897
 30
0.0
 11
2.8063300378
 21
-128.5299157328
 31
0.0
  0
LINE
  5
487
330
405
100
AcDbEntity
  8
0
  6
Continuous
 62
     0
370
    18
100
AcDbLine
 10
5.6126600757
 20
3.3675960454
 30
0.0
 11
6.6857547348
 21
4.4406907045
 31
0.0
  0
LINE
  5
488
330
405
100
AcDbEntity
  8
0
  6
Continuous
 62
     0
370
    18
100
AcDbLine
 10
-3.212328967
 20
-5.4573929973
 30
0.0
 11
1.1225320151
 21
-1.1225320151
 31
0.0
  0
LINE
  5
489
330
405
100
AcDbEntity
  8
0
  6
Continuous
 62
     0
370
    18
100
AcDbLine
 10
-8.8683760743
 20
-11.1134401045
 30
0.0
 11
-7.8577241059
 21
-10.1027881362
 31
0.0
  0
LINE
  5
48A
330
405
100
AcDbEntity
  8
0
  6
Continuous
 62
     0
370
    18
100
AcDbLine
 10
14.5929161967
 20
3.3675960454
 30
0.0
 11
18.7688639147
 21
7.5435437633
 31
0.0
  0
LINE
  5
48B
330
405
100
AcDbEntity
  8
0
  6
Continuous
 62
     0
370
    18
100
AcDbLine
 10
5.6126600757
 20
-5.6126600757
 30
0.0
 11
10.1027881362
 21
-1.1225320151
 31
0.0
  0
LINE
  5
48C
330
405
100
AcDbEntity
  8
0
  6
Continuous
 62
     0
370
    18
100
AcDbLine
 10
-3.3675960454
 20
-14.5929161967
 30
0.0
 11
0.9585922207
 21
-10.2667279306
 31
0.0
  0
LINE
  5
48D
330
405
100
AcDbEntity
  8
0
  6
Continuous
 62
     0
370
    18
100
AcDbLine
 10
-9.6507279405
 20
-20.8760480918
 30
0.0
 11
-7.8577241059
 21
-19.0830442573
 31
0.0
  0
LINE
  5
48E
330
405
100
AcDbEntity
  8
0
  6
Continuous
 62
     0
370
    18
100
AcDbLine
 10
23.5731723178
 20
3.3675960454
 30
0.0
 11
28.0633003783
 21
7.8577241059
 31
0.0
  0
LINE
  5
48F
330
405
100
AcDbEntity
  8
0
  6
Continuous
 62
     0
370
    18
100
AcDbLine
 10
14.5929161967
 20
-5.6126600757
 30
0.0
 11
19.0830442573
 21
-1.1225320151
 31
0.0
  0
LINE
  5
490
330
405
100
AcDbEntity
  8
0
  6
Continuous
 62
     0
370
    18
100
AcDbLine
 10
5.6126600757
 20
-14.5929161967
 30
0.0
 11
5.8392902187
 21
-14.3662860537
 31
0.0
  0
LINE
  5
491
330
405
100
AcDbEntity
  8
0
  6
Continuous
 62
     0
370
    18
100
AcDbLine
 10
-3.3675960454
 20
-23.5731723178
 30
0.0
 11
1.1225320151
 21
-19.0830442573
 31
0.0
  0
LINE
  5
492
330
405
100
AcDbEntity
  8
0
  6
Continuous
 62
     0
370
    18
100
AcDbLine
 10
-10.4330798066
 20
-30.6386560791
 30
0.0
 11
-7.8577241059
 21
-28.0633003783
 31
0.0
  0
LINE
  5
493
330
405
100
AcDbEntity
  8
0
  6
Continuous
 62
     0
370
    18
100
AcDbLine
 10
5.6126600757
 20
-23.5731723178
 30
0.0
 11
9.1306341784
 21
-20.0551982151
 31
0.0
  0
LINE
  5
494
330
405
100
AcDbEntity
  8
0
  6
Continuous
 62
     0
370
    18
100
AcDbLine
 10
-3.3675960454
 20
-32.5534284389
 30
0.0
 11
1.1225320151
 21
-28.0633003783
 31
0.0
  0
LINE
  5
495
330
405
100
AcDbEntity
  8
0
  6
Continuous
 62
     0
370
    18
100
AcDbLine
 10
-11.2154316728
 20
-40.4012640663
 30
0.0
 11
-7.8577241059
 21
-37.0435564994
 31
0.0
  0
LINE
  5
496
330
405
100
AcDbEntity
  8
0
  6
Continuous
 62
     0
370
    18
100
AcDbLine
 10
41.5336845599
 20
12.3478521665
 30
0.0
 11
42.9350822745
 21
13.749249881
 31
0.0
  0
LINE
  5
497
330
405
100
AcDbEntity
  8
0
  6
Continuous
 62
     0
370
    18
100
AcDbLine
 10
32.5534284389
 20
3.3675960454
 30
0.0
 11
37.0435564994
 21
7.8577241059
 31
0.0
  0
LINE
  5
498
330
405
100
AcDbEntity
  8
0
  6
Continuous
 62
     0
370
    18
100
AcDbLine
 10
23.5731723178
 20
-5.6126600757
 30
0.0
 11
28.0633003783
 21
-1.1225320151
 31
0.0
  0
LINE
  5
499
330
405
100
AcDbEntity
  8
0
  6
Continuous
 62
     0
370
    18
100
AcDbLine
 10
16.3378023294
 20
-12.848030064
 30
0.0
 11
19.0830442573
 21
-10.1027881362
 31
0.0
  0
LINE
  5
49A
330
405
100
AcDbEntity
  8
0
  6
Continuous
 62
     0
370
    18
100
AcDbLine
 10
5.6126600757
 20
-32.5534284389
 30
0.0
 11
8.6107684375
 21
-29.5553200771
 31
0.0
  0
LINE
  5
49B
330
405
100
AcDbEntity
  8
0
  6
Continuous
 62
     0
370
    18
100
AcDbLine
 10
-3.3675960454
 20
-41.5336845599
 30
0.0
 11
1.1225320151
 21
-37.0435564994
 31
0.0
  0
LINE
  5
49C
330
405
100
AcDbEntity
  8
0
  6
Continuous
 62
     0
370
    18
100
AcDbLine
 10
-11.997783539
 20
-50.1638720536
 30
0.0
 11
-7.8577241059
 21
-46.0238126205
 31
0.0
  0
LINE
  5
49D
330
405
100
AcDbEntity
  8
0
  6
Continuous
 62
     0
370
    18
100
AcDbLine
 10
50.513940681
 20
12.3478521665
 30
0.0
 11
55.0040687415
 21
16.837980227
 31
0.0
  0
LINE
  5
49E
330
405
100
AcDbEntity
  8
0
  6
Continuous
 62
     0
370
    18
100
AcDbLine
 10
41.5336845599
 20
3.3675960454
 30
0.0
 11
46.0238126205
 21
7.8577241059
 31
0.0
  0
LINE
  5
49F
330
405
100
AcDbEntity
  8
0
  6
Continuous
 62
     0
370
    18
100
AcDbLine
 10
32.5534284389
 20
-5.6126600757
 30
0.0
 11
37.0435564994
 21
-1.1225320151
 31
0.0
  0
LINE
  5
4A0
330
405
100
AcDbEntity
  8
0
  6
Continuous
 62
     0
370
    18
100
AcDbLine
 10
5.6126600757
 20
-41.5336845599
 30
0.0
 11
7.9957338998
 21
-39.1506107358
 31
0.0
  0
LINE
  5
4A1
330
405
100
AcDbEntity
  8
0
  6
Continuous
 62
     0
370
    18
100
AcDbLine
 10
-3.3675960454
 20
-50.513940681
 30
0.0
 11
1.1225320151
 21
-46.0238126205
 31
0.0
  0
LINE
  5
4A2
330
405
100
AcDbEntity
  8
0
  6
Continuous
 62
     0
370
    18
100
AcDbLine
 10
-12.3478521665
 20
-59.4941968021
 30
0.0
 11
-8.5921785367
 21
-55.7385231723
 31
0.0
  0
LINE
  5
4A3
330
405
100
AcDbEntity
  8
0
  6
Continuous
 62
     0
370
    18
100
AcDbLine
 10
59.4941968021
 20
12.3478521665
 30
0.0
 11
63.9843248626
 21
16.837980227
 31
0.0
  0
LINE
  5
4A4
330
405
100
AcDbEntity
  8
0
  6
Continuous
 62
     0
370
    18
100
AcDbLine
 10
50.513940681
 20
3.3675960454
 30
0.0
 11
55.0040687415
 21
7.8577241059
 31
0.0
  0
LINE
  5
4A5
330
405
100
AcDbEntity
  8
0
  6
Continuous
 62
     0
370
    18
100
AcDbLine
 10
41.6250958721
 20
-5.5212487635
 30
0.0
 11
46.0238126205
 21
-1.1225320151
 31
0.0
  0
LINE
  5
4A6
330
405
100
AcDbEntity
  8
0
  6
Continuous
 62
     0
370
    18
100
AcDbLine
 10
5.6126600757
 20
-50.513940681
 30
0.0
 11
7.3806993621
 21
-48.7459013945
 31
0.0
  0
LINE
  5
4A7
330
405
100
AcDbEntity
  8
0
  6
Continuous
 62
     0
370
    18
100
AcDbLine
 10
-3.3675960454
 20
-59.4941968021
 30
0.0
 11
-0.7591997551
 21
-56.8858005118
 31
0.0
  0
LINE
  5
4A8
330
405
100
AcDbEntity
  8
0
  6
Continuous
 62
     0
370
    18
100
AcDbLine
 10
-12.3478521665
 20
-68.4744529232
 30
0.0
 11
-7.8577241059
 21
-63.9843248626
 31
0.0
  0
LINE
  5
4A9
330
405
100
AcDbEntity
  8
0
  6
Continuous
 62
     0
370
    18
100
AcDbLine
 10
77.4547090442
 20
21.3281082875
 30
0.0
 11
79.1844098142
 21
23.0578090575
 31
0.0
  0
LINE
  5
4AA
330
405
100
AcDbEntity
  8
0
  6
Continuous
 62
     0
370
    18
100
AcDbLine
 10
68.4744529232
 20
12.3478521665
 30
0.0
 11
72.9645809837
 21
16.837980227
 31
0.0
  0
LINE
  5
4AB
330
405
100
AcDbEntity
  8
0
  6
Continuous
 62
     0
370
    18
100
AcDbLine
 10
59.4941968021
 20
3.3675960454
 30
0.0
 11
63.9843248626
 21
7.8577241059
 31
0.0
  0
LINE
  5
4AC
330
405
100
AcDbEntity
  8
0
  6
Continuous
 62
     0
370
    18
100
AcDbLine
 10
54.2687426434
 20
-1.8578581133
 30
0.0
 11
55.0040687415
 21
-1.1225320151
 31
0.0
  0
LINE
  5
4AD
330
405
100
AcDbEntity
  8
0
  6
Continuous
 62
     0
370
    18
100
AcDbLine
 10
5.6126600757
 20
-59.4941968021
 30
0.0
 11
6.7656648245
 21
-58.3411920533
 31
0.0
  0
LINE
  5
4AE
330
405
100
AcDbEntity
  8
0
  6
Continuous
 62
     0
370
    18
100
AcDbLine
 10
-3.3675960454
 20
-68.4744529232
 30
0.0
 11
1.1225320151
 21
-63.9843248626
 31
0.0
  0
LINE
  5
4AF
330
405
100
AcDbEntity
  8
0
  6
Continuous
 62
     0
370
    18
100
AcDbLine
 10
-12.3478521665
 20
-77.4547090442
 30
0.0
 11
-7.8577241059
 21
-72.9645809837
 31
0.0
  0
LINE
  5
4B0
330
405
100
AcDbEntity
  8
0
  6
Continuous
 62
     0
370
    18
100
AcDbLine
 10
86.4349651653
 20
21.3281082875
 30
0.0
 11
90.9250932258
 21
25.8182363481
 31
0.0
  0
LINE
  5
4B1
330
405
100
AcDbEntity
  8
0
  6
Continuous
 62
     0
370
    18
100
AcDbLine
 10
77.4547090442
 20
12.3478521665
 30
0.0
 11
81.9448371048
 21
16.837980227
 31
0.0
  0
LINE
  5
4B2
330
405
100
AcDbEntity
  8
0
  6
Continuous
 62
     0
370
    18
100
AcDbLine
 10
68.4744529232
 20
3.3675960454
 30
0.0
 11
72.9645809837
 21
7.8577241059
 31
0.0
  0
LINE
  5
4B3
330
405
100
AcDbEntity
  8
0
  6
Continuous
 62
     0
370
    18
100
AcDbLine
 10
5.6126600757
 20
-68.4744529232
 30
0.0
 11
6.1506302868
 21
-67.936482712
 31
0.0
  0
LINE
  5
4B4
330
405
100
AcDbEntity
  8
0
  6
Continuous
 62
     0
370
    18
100
AcDbLine
 10
-3.3675960454
 20
-77.4547090442
 30
0.0
 11
1.1225320151
 21
-72.9645809837
 31
0.0
  0
LINE
  5
4B5
330
405
100
AcDbEntity
  8
0
  6
Continuous
 62
     0
370
    18
100
AcDbLine
 10
-12.3478521665
 20
-86.4349651653
 30
0.0
 11
-7.8577241059
 21
-81.9448371048
 31
0.0
  0
LINE
  5
4B6
330
405
100
AcDbEntity
  8
0
  6
Continuous
 62
     0
370
    18
100
AcDbLine
 10
95.4152212864
 20
21.3281082875
 30
0.0
 11
98.6032880817
 21
24.5161750828
 31
0.0
  0
LINE
  5
4B7
330
405
100
AcDbEntity
  8
0
  6
Continuous
 62
     0
370
    18
100
AcDbLine
 10
86.4349651653
 20
12.3478521665
 30
0.0
 11
90.9250932258
 21
16.837980227
 31
0.0
  0
LINE
  5
4B8
330
405
100
AcDbEntity
  8
0
  6
Continuous
 62
     0
370
    18
100
AcDbLine
 10
79.5560361861
 20
5.4689231872
 30
0.0
 11
81.9448371048
 21
7.8577241059
 31
0.0
  0
LINE
  5
4B9
330
405
100
AcDbEntity
  8
0
  6
Continuous
 62
     0
370
    18
100
AcDbLine
 10
-3.3675960454
 20
-86.4349651653
 30
0.0
 11
1.1225320151
 21
-81.9448371048
 31
0.0
  0
LINE
  5
4BA
330
405
100
AcDbEntity
  8
0
  6
Continuous
 62
     0
370
    18
100
AcDbLine
 10
-12.3478521665
 20
-95.4152212864
 30
0.0
 11
-7.8577241059
 21
-90.9250932258
 31
0.0
  0
LINE
  5
4BB
330
405
100
AcDbEntity
  8
0
  6
Continuous
 62
     0
370
    18
100
AcDbLine
 10
95.4152212864
 20
12.3478521665
 30
0.0
 11
98.6032880817
 21
15.5359189618
 31
0.0
  0
LINE
  5
4BC
330
405
100
AcDbEntity
  8
0
  6
Continuous
 62
     0
370
    18
100
AcDbLine
 10
-3.3675960454
 20
-95.4152212864
 30
0.0
 11
1.1225320151
 21
-90.9250932258
 31
0.0
  0
LINE
  5
4BD
330
405
100
AcDbEntity
  8
0
  6
Continuous
 62
     0
370
    18
100
AcDbLine
 10
-12.3478521665
 20
-104.3954774074
 30
0.0
 11
-7.8577241059
 21
-99.9053493469
 31
0.0
  0
LINE
  5
4BE
330
405
100
AcDbEntity
  8
0
  6
Continuous
 62
     0
370
    18
100
AcDbLine
 10
-3.3675960454
 20
-104.3954774074
 30
0.0
 11
1.1225320151
 21
-99.9053493469
 31
0.0
  0
LINE
  5
4BF
330
405
100
AcDbEntity
  8
0
  6
Continuous
 62
     0
370
    18
100
AcDbLine
 10
-12.3478521665
 20
-113.3757335285
 30
0.0
 11
-7.8577241059
 21
-108.885605468
 31
0.0
  0
LINE
  5
4C0
330
405
100
AcDbEntity
  8
0
  6
Continuous
 62
     0
370
    18
100
AcDbLine
 10
-3.3675960454
 20
-113.3757335285
 30
0.0
 11
1.1225320151
 21
-108.885605468
 31
0.0
  0
LINE
  5
4C1
330
405
100
AcDbEntity
  8
0
  6
Continuous
 62
     0
370
    18
100
AcDbLine
 10
-12.3478521665
 20
-122.3559896496
 30
0.0
 11
-7.8577241059
 21
-117.865861589
 31
0.0
  0
LINE
  5
4C2
330
405
100
AcDbEntity
  8
0
  6
Continuous
 62
     0
370
    18
100
AcDbLine
 10
-3.3675960454
 20
-122.3559896496
 30
0.0
 11
1.1225320151
 21
-117.865861589
 31
0.0
  0
LINE
  5
4C3
330
405
100
AcDbEntity
  8
0
  6
Continuous
 62
     0
370
    18
100
AcDbLine
 10
-11.4285451855
 20
-130.4169387897
 30
0.0
 11
-7.8577241059
 21
-126.8461177101
 31
0.0
  0
LINE
  5
4C4
330
405
100
AcDbEntity
  8
0
  6
Continuous
 62
     0
370
    18
100
AcDbLine
 10
-2.4482890644
 20
-130.4169387897
 30
0.0
 11
1.1225320151
 21
-126.8461177101
 31
0.0
  0
LINE
  5
4C5
330
405
100
AcDbEntity
  8
0
  6
Continuous
 62
     0
370
    18
100
AcDbLine
 10
-12.3478521665
 20
-130.2137137555
 30
0.0
 11
-16.8263190355
 21
-125.7352468865
 31
0.0
  0
LINE
  5
4C6
330
405
100
AcDbEntity
  8
0
  6
Continuous
 62
     0
370
    18
100
AcDbLine
 10
-12.3478521665
 20
-121.2334576344
 30
0.0
 11
-16.8263190355
 21
-116.7549907654
 31
0.0
  0
LINE
  5
4C7
330
405
100
AcDbEntity
  8
0
  6
Continuous
 62
     0
370
    18
100
AcDbLine
 10
-3.3675960454
 20
-130.2137137555
 30
0.0
 11
-7.8577241059
 21
-125.723585695
 31
0.0
  0
LINE
  5
4C8
330
405
100
AcDbEntity
  8
0
  6
Continuous
 62
     0
370
    18
100
AcDbLine
 10
-12.3478521665
 20
-112.2532015134
 30
0.0
 11
-16.6302885742
 21
-107.9707651056
 31
0.0
  0
LINE
  5
4C9
330
405
100
AcDbEntity
  8
0
  6
Continuous
 62
     0
370
    18
100
AcDbLine
 10
-3.3675960454
 20
-121.2334576344
 30
0.0
 11
-7.8577241059
 21
-116.7433295739
 31
0.0
  0
LINE
  5
4CA
330
405
100
AcDbEntity
  8
0
  6
Continuous
 62
     0
370
    18
100
AcDbLine
 10
3.4277375061
 20
-128.0287911859
 30
0.0
 11
1.1225320151
 21
-125.723585695
 31
0.0
  0
LINE
  5
4CB
330
405
100
AcDbEntity
  8
0
  6
Continuous
 62
     0
370
    18
100
AcDbLine
 10
-12.3478521665
 20
-103.2729453923
 30
0.0
 11
-15.9640252377
 21
-99.656772321
 31
0.0
  0
LINE
  5
4CC
330
405
100
AcDbEntity
  8
0
  6
Continuous
 62
     0
370
    18
100
AcDbLine
 10
-3.3675960454
 20
-112.2532015134
 30
0.0
 11
-7.8577241059
 21
-107.7630734528
 31
0.0
  0
LINE
  5
4CD
330
405
100
AcDbEntity
  8
0
  6
Continuous
 62
     0
370
    18
100
AcDbLine
 10
3.4277375061
 20
-119.0485350648
 30
0.0
 11
1.1225320151
 21
-116.7433295739
 31
0.0
  0
LINE
  5
4CE
330
405
100
AcDbEntity
  8
0
  6
Continuous
 62
     0
370
    18
100
AcDbLine
 10
-12.3478521665
 20
-94.2926892712
 30
0.0
 11
-15.2977619012
 21
-91.3427795365
 31
0.0
  0
LINE
  5
4CF
330
405
100
AcDbEntity
  8
0
  6
Continuous
 62
     0
370
    18
100
AcDbLine
 10
-3.3675960454
 20
-103.2729453923
 30
0.0
 11
-7.8577241059
 21
-98.7828173318
 31
0.0
  0
LINE
  5
4D0
330
405
100
AcDbEntity
  8
0
  6
Continuous
 62
     0
370
    18
100
AcDbLine
 10
3.4487395646
 20
-110.0892810023
 30
0.0
 11
1.1225320151
 21
-107.7630734528
 31
0.0
  0
LINE
  5
4D1
330
405
100
AcDbEntity
  8
0
  6
Continuous
 62
     0
370
    18
100
AcDbLine
 10
-12.3478521665
 20
-85.3124331502
 30
0.0
 11
-14.6314985647
 21
-83.0287867519
 31
0.0
  0
LINE
  5
4D2
330
405
100
AcDbEntity
  8
0
  6
Continuous
 62
     0
370
    18
100
AcDbLine
 10
-3.3675960454
 20
-94.2926892712
 30
0.0
 11
-7.8577241059
 21
-89.8025612107
 31
0.0
  0
LINE
  5
4D3
330
405
100
AcDbEntity
  8
0
  6
Continuous
 62
     0
370
    18
100
AcDbLine
 10
3.9896790122
 20
-101.6499643288
 30
0.0
 11
1.1225320151
 21
-98.7828173318
 31
0.0
  0
LINE
  5
4D4
330
405
100
AcDbEntity
  8
0
  6
Continuous
 62
     0
370
    18
100
AcDbLine
 10
-12.3478521665
 20
-76.3321770291
 30
0.0
 11
-13.9652352282
 21
-74.7147939673
 31
0.0
  0
LINE
  5
4D5
330
405
100
AcDbEntity
  8
0
  6
Continuous
 62
     0
370
    18
100
AcDbLine
 10
-3.3675960454
 20
-85.3124331502
 30
0.0
 11
-7.8577241059
 21
-80.8223050896
 31
0.0
  0
LINE
  5
4D6
330
405
100
AcDbEntity
  8
0
  6
Continuous
 62
     0
370
    18
100
AcDbLine
 10
4.5306184598
 20
-93.2106476553
 30
0.0
 11
1.1225320151
 21
-89.8025612107
 31
0.0
  0
LINE
  5
4D7
330
405
100
AcDbEntity
  8
0
  6
Continuous
 62
     0
370
    18
100
AcDbLine
 10
-12.3478521665
 20
-67.351920908
 30
0.0
 11
-13.2989718917
 21
-66.4008011827
 31
0.0
  0
LINE
  5
4D8
330
405
100
AcDbEntity
  8
0
  6
Continuous
 62
     0
370
    18
100
AcDbLine
 10
-3.3675960454
 20
-76.3321770291
 30
0.0
 11
-7.8577241059
 21
-71.8420489686
 31
0.0
  0
LINE
  5
4D9
330
405
100
AcDbEntity
  8
0
  6
Continuous
 62
     0
370
    18
100
AcDbLine
 10
5.0715579074
 20
-84.7713309819
 30
0.0
 11
1.1225320151
 21
-80.8223050896
 31
0.0
  0
LINE
  5
4DA
330
405
100
AcDbEntity
  8
0
  6
Continuous
 62
     0
370
    18
100
AcDbLine
 10
-12.3478521665
 20
-58.3716647869
 30
0.0
 11
-12.6327085553
 21
-58.0868083982
 31
0.0
  0
LINE
  5
4DB
330
405
100
AcDbEntity
  8
0
  6
Continuous
 62
     0
370
    18
100
AcDbLine
 10
-3.3675960454
 20
-67.351920908
 30
0.0
 11
-7.8577241059
 21
-62.8617928475
 31
0.0
  0
LINE
  5
4DC
330
405
100
AcDbEntity
  8
0
  6
Continuous
 62
     0
370
    18
100
AcDbLine
 10
5.612497355
 20
-76.3320143084
 30
0.0
 11
1.1225320151
 21
-71.8420489686
 31
0.0
  0
LINE
  5
4DD
330
405
100
AcDbEntity
  8
0
  6
Continuous
 62
     0
370
    18
100
AcDbLine
 10
-3.3675960454
 20
-58.3716647869
 30
0.0
 11
-5.5560421527
 21
-56.1832186796
 31
0.0
  0
LINE
  5
4DE
330
405
100
AcDbEntity
  8
0
  6
Continuous
 62
     0
370
    18
100
AcDbLine
 10
5.6126600757
 20
-67.351920908
 30
0.0
 11
1.1225320151
 21
-62.8617928475
 31
0.0
  0
LINE
  5
4DF
330
405
100
AcDbEntity
  8
0
  6
Continuous
 62
     0
370
    18
100
AcDbLine
 10
-3.3675960454
 20
-49.3914086659
 30
0.0
 11
-7.8577241059
 21
-44.9012806053
 31
0.0
  0
LINE
  5
4E0
330
405
100
AcDbEntity
  8
0
  6
Continuous
 62
     0
370
    18
100
AcDbLine
 10
5.6126600757
 20
-58.3716647869
 30
0.0
 11
4.9652406563
 21
-57.7242453676
 31
0.0
  0
LINE
  5
4E1
330
405
100
AcDbEntity
  8
0
  6
Continuous
 62
     0
370
    18
100
AcDbLine
 10
-3.3675960454
 20
-40.4111525448
 30
0.0
 11
-7.8577241059
 21
-35.9210244843
 31
0.0
  0
LINE
  5
4E2
330
405
100
AcDbEntity
  8
0
  6
Continuous
 62
     0
370
    18
100
AcDbLine
 10
5.6126600757
 20
-49.3914086659
 30
0.0
 11
1.1225320151
 21
-44.9012806053
 31
0.0
  0
LINE
  5
4E3
330
405
100
AcDbEntity
  8
0
  6
Continuous
 62
     0
370
    18
100
AcDbLine
 10
-3.3675960454
 20
-31.4308964237
 30
0.0
 11
-7.8577241059
 21
-26.9407683632
 31
0.0
  0
LINE
  5
4E4
330
405
100
AcDbEntity
  8
0
  6
Continuous
 62
     0
370
    18
100
AcDbLine
 10
5.6126600757
 20
-40.4111525448
 30
0.0
 11
1.1225320151
 21
-35.9210244843
 31
0.0
  0
LINE
  5
4E5
330
405
100
AcDbEntity
  8
0
  6
Continuous
 62
     0
370
    18
100
AcDbLine
 10
-3.3675960454
 20
-22.4506403027
 30
0.0
 11
-7.8577241059
 21
-17.9605122421
 31
0.0
  0
LINE
  5
4E6
330
405
100
AcDbEntity
  8
0
  6
Continuous
 62
     0
370
    18
100
AcDbLine
 10
5.6126600757
 20
-31.4308964237
 30
0.0
 11
1.1225320151
 21
-26.9407683632
 31
0.0
  0
LINE
  5
4E7
330
405
100
AcDbEntity
  8
0
  6
Continuous
 62
     0
370
    18
100
AcDbLine
 10
-3.3675960454
 20
-13.4703841816
 30
0.0
 11
-7.8577241059
 21
-8.9802561211
 31
0.0
  0
LINE
  5
4E8
330
405
100
AcDbEntity
  8
0
  6
Continuous
 62
     0
370
    18
100
AcDbLine
 10
5.6126600757
 20
-22.4506403027
 30
0.0
 11
1.1225320151
 21
-17.9605122421
 31
0.0
  0
LINE
  5
4E9
330
405
100
AcDbEntity
  8
0
  6
Continuous
 62
     0
370
    18
100
AcDbLine
 10
-3.3675960454
 20
-4.4901280605
 30
0.0
 11
-6.4053690301
 21
-1.4523550759
 31
0.0
  0
LINE
  5
4EA
330
405
100
AcDbEntity
  8
0
  6
Continuous
 62
     0
370
    18
100
AcDbLine
 10
1.8611750858
 20
-9.7188991917
 30
0.0
 11
1.1225320151
 21
-8.9802561211
 31
0.0
  0
LINE
  5
4EB
330
405
100
AcDbEntity
  8
0
  6
Continuous
 62
     0
370
    18
100
AcDbLine
 10
5.6126600757
 20
-4.4901280605
 30
0.0
 11
1.1225320151
 21
0.0
 31
0.0
  0
LINE
  5
4EC
330
405
100
AcDbEntity
  8
0
  6
Continuous
 62
     0
370
    18
100
AcDbLine
 10
14.5133007777
 20
-13.3907687626
 30
0.0
 11
10.1027881362
 21
-8.9802561211
 31
0.0
  0
LINE
  5
4ED
330
405
100
AcDbEntity
  8
0
  6
Continuous
 62
     0
370
    18
100
AcDbLine
 10
14.5929161967
 20
-4.4901280605
 30
0.0
 11
10.1027881362
 21
0.0
 31
0.0
  0
LINE
  5
4EE
330
405
100
AcDbEntity
  8
0
  6
Continuous
 62
     0
370
    18
100
AcDbLine
 10
21.4651982262
 20
-11.36241009
 30
0.0
 11
19.0830442573
 21
-8.9802561211
 31
0.0
  0
LINE
  5
4EF
330
405
100
AcDbEntity
  8
0
  6
Continuous
 62
     0
370
    18
100
AcDbLine
 10
14.5929161967
 20
4.4901280605
 30
0.0
 11
13.0166312843
 21
6.066412973
 31
0.0
  0
LINE
  5
4F0
330
405
100
AcDbEntity
  8
0
  6
Continuous
 62
     0
370
    18
100
AcDbLine
 10
23.5731723178
 20
-4.4901280605
 30
0.0
 11
19.0830442573
 21
0.0
 31
0.0
  0
LINE
  5
4F1
330
405
100
AcDbEntity
  8
0
  6
Continuous
 62
     0
370
    18
100
AcDbLine
 10
28.428031718
 20
-9.3449874607
 30
0.0
 11
28.0633003783
 21
-8.9802561211
 31
0.0
  0
LINE
  5
4F2
330
405
100
AcDbEntity
  8
0
  6
Continuous
 62
     0
370
    18
100
AcDbLine
 10
23.5731723178
 20
4.4901280605
 30
0.0
 11
20.1620076172
 21
7.9012927611
 31
0.0
  0
LINE
  5
4F3
330
405
100
AcDbEntity
  8
0
  6
Continuous
 62
     0
370
    18
100
AcDbLine
 10
32.5534284389
 20
-4.4901280605
 30
0.0
 11
28.0633003783
 21
0.0
 31
0.0
  0
LINE
  5
4F4
330
405
100
AcDbEntity
  8
0
  6
Continuous
 62
     0
370
    18
100
AcDbLine
 10
32.5534284389
 20
4.4901280605
 30
0.0
 11
28.0633003783
 21
8.9802561211
 31
0.0
  0
LINE
  5
4F5
330
405
100
AcDbEntity
  8
0
  6
Continuous
 62
     0
370
    18
100
AcDbLine
 10
41.5336845599
 20
-4.4901280605
 30
0.0
 11
37.0435564994
 21
0.0
 31
0.0
  0
LINE
  5
4F6
330
405
100
AcDbEntity
  8
0
  6
Continuous
 62
     0
370
    18
100
AcDbLine
 10
41.5336845599
 20
4.4901280605
 30
0.0
 11
37.0435564994
 21
8.9802561211
 31
0.0
  0
LINE
  5
4F7
330
405
100
AcDbEntity
  8
0
  6
Continuous
 62
     0
370
    18
100
AcDbLine
 10
49.3165321933
 20
-3.2927195729
 30
0.0
 11
46.0238126205
 21
0.0
 31
0.0
  0
LINE
  5
4F8
330
405
100
AcDbEntity
  8
0
  6
Continuous
 62
     0
370
    18
100
AcDbLine
 10
50.513940681
 20
4.4901280605
 30
0.0
 11
46.0238126205
 21
8.9802561211
 31
0.0
  0
LINE
  5
4F9
330
405
100
AcDbEntity
  8
0
  6
Continuous
 62
     0
370
    18
100
AcDbLine
 10
56.2793656851
 20
-1.2752969436
 30
0.0
 11
55.0040687415
 21
0.0
 31
0.0
  0
LINE
  5
4FA
330
405
100
AcDbEntity
  8
0
  6
Continuous
 62
     0
370
    18
100
AcDbLine
 10
50.513940681
 20
13.4703841816
 30
0.0
 11
48.7435129492
 21
15.2408119134
 31
0.0
  0
LINE
  5
4FB
330
405
100
AcDbEntity
  8
0
  6
Continuous
 62
     0
370
    18
100
AcDbLine
 10
59.4941968021
 20
4.4901280605
 30
0.0
 11
55.0040687415
 21
8.9802561211
 31
0.0
  0
LINE
  5
4FC
330
405
100
AcDbEntity
  8
0
  6
Continuous
 62
     0
370
    18
100
AcDbLine
 10
59.4941968021
 20
13.4703841816
 30
0.0
 11
55.8888892822
 21
17.0756917015
 31
0.0
  0
LINE
  5
4FD
330
405
100
AcDbEntity
  8
0
  6
Continuous
 62
     0
370
    18
100
AcDbLine
 10
68.4744529232
 20
4.4901280605
 30
0.0
 11
63.9843248626
 21
8.9802561211
 31
0.0
  0
LINE
  5
4FE
330
405
100
AcDbEntity
  8
0
  6
Continuous
 62
     0
370
    18
100
AcDbLine
 10
68.4744529232
 20
13.4703841816
 30
0.0
 11
63.9843248626
 21
17.9605122421
 31
0.0
  0
LINE
  5
4FF
330
405
100
AcDbEntity
  8
0
  6
Continuous
 62
     0
370
    18
100
AcDbLine
 10
77.1678661605
 20
4.7769709443
 30
0.0
 11
72.9645809837
 21
8.9802561211
 31
0.0
  0
LINE
  5
500
330
405
100
AcDbEntity
  8
0
  6
Continuous
 62
     0
370
    18
100
AcDbLine
 10
77.4547090442
 20
13.4703841816
 30
0.0
 11
72.9645809837
 21
17.9605122421
 31
0.0
  0
LINE
  5
501
330
405
100
AcDbEntity
  8
0
  6
Continuous
 62
     0
370
    18
100
AcDbLine
 10
84.1306996523
 20
6.7943935735
 30
0.0
 11
81.9448371048
 21
8.9802561211
 31
0.0
  0
LINE
  5
502
330
405
100
AcDbEntity
  8
0
  6
Continuous
 62
     0
370
    18
100
AcDbLine
 10
77.4547090442
 20
22.4506403027
 30
0.0
 11
77.3250182812
 21
22.5803310657
 31
0.0
  0
LINE
  5
503
330
405
100
AcDbEntity
  8
0
  6
Continuous
 62
     0
370
    18
100
AcDbLine
 10
86.4349651653
 20
13.4703841816
 30
0.0
 11
81.9448371048
 21
17.9605122421
 31
0.0
  0
LINE
  5
504
330
405
100
AcDbEntity
  8
0
  6
Continuous
 62
     0
370
    18
100
AcDbLine
 10
91.0935331441
 20
8.8118162028
 30
0.0
 11
90.9250932258
 21
8.9802561211
 31
0.0
  0
LINE
  5
505
330
405
100
AcDbEntity
  8
0
  6
Continuous
 62
     0
370
    18
100
AcDbLine
 10
86.4349651653
 20
22.4506403027
 30
0.0
 11
84.4703946141
 21
24.4152108538
 31
0.0
  0
LINE
  5
506
330
405
100
AcDbEntity
  8
0
  6
Continuous
 62
     0
370
    18
100
AcDbLine
 10
95.4152212864
 20
13.4703841816
 30
0.0
 11
90.9250932258
 21
17.9605122421
 31
0.0
  0
LINE
  5
507
330
405
100
AcDbEntity
  8
0
  6
Continuous
 62
     0
370
    18
100
AcDbLine
 10
95.4152212864
 20
22.4506403027
 30
0.0
 11
91.6157709471
 21
26.2500906419
 31
0.0
  0
LINE
  5
508
330
405
100
AcDbEntity
  8
0
  6
Continuous
 62
     0
370
    18
100
AcDbLine
 10
-10.6640541438
 20
-128.5299157328
 30
0.0
 11
-15.1541822043
 21
-124.0397876723
 31
0.0
  0
LINE
  5
509
330
405
100
AcDbEntity
  8
0
  6
Continuous
 62
     0
370
    18
100
AcDbLine
 10
-10.6640541438
 20
-119.5496596117
 30
0.0
 11
-15.1541822043
 21
-115.0595315512
 31
0.0
  0
LINE
  5
50A
330
405
100
AcDbEntity
  8
0
  6
Continuous
 62
     0
370
    18
100
AcDbLine
 10
-1.6837980227
 20
-128.5299157328
 30
0.0
 11
-6.1739260832
 21
-124.0397876723
 31
0.0
  0
LINE
  5
50B
330
405
100
AcDbEntity
  8
0
  6
Continuous
 62
     0
370
    18
100
AcDbLine
 10
-10.6640541438
 20
-110.5694034907
 30
0.0
 11
-14.6160998822
 21
-106.6173577522
 31
0.0
  0
LINE
  5
50C
330
405
100
AcDbEntity
  8
0
  6
Continuous
 62
     0
370
    18
100
AcDbLine
 10
-1.6837980227
 20
-119.5496596117
 30
0.0
 11
-6.1739260832
 21
-115.0595315512
 31
0.0
  0
LINE
  5
50D
330
405
100
AcDbEntity
  8
0
  6
Continuous
 62
     0
370
    18
100
AcDbLine
 10
3.4277375061
 20
-124.6611951405
 30
0.0
 11
2.8063300378
 21
-124.0397876723
 31
0.0
  0
LINE
  5
50E
330
405
100
AcDbEntity
  8
0
  6
Continuous
 62
     0
370
    18
100
AcDbLine
 10
-10.6640541438
 20
-101.5891473696
 30
0.0
 11
-15.1541822043
 21
-97.0990193091
 31
0.0
  0
LINE
  5
50F
330
405
100
AcDbEntity
  8
0
  6
Continuous
 62
     0
370
    18
100
AcDbLine
 10
-1.6837980227
 20
-110.5694034907
 30
0.0
 11
-5.075756081
 21
-107.1774454324
 31
0.0
  0
LINE
  5
510
330
405
100
AcDbEntity
  8
0
  6
Continuous
 62
     0
370
    18
100
AcDbLine
 10
3.4277375061
 20
-115.6809390194
 30
0.0
 11
2.8063300378
 21
-115.0595315512
 31
0.0
  0
LINE
  5
511
330
405
100
AcDbEntity
  8
0
  6
Continuous
 62
     0
370
    18
100
AcDbLine
 10
-10.6640541438
 20
-92.6088912485
 30
0.0
 11
-15.04791315
 21
-88.2250322423
 31
0.0
  0
LINE
  5
512
330
405
100
AcDbEntity
  8
0
  6
Continuous
 62
     0
370
    18
100
AcDbLine
 10
-1.6837980227
 20
-101.5891473696
 30
0.0
 11
-6.1739260832
 21
-97.0990193091
 31
0.0
  0
LINE
  5
513
330
405
100
AcDbEntity
  8
0
  6
Continuous
 62
     0
370
    18
100
AcDbLine
 10
3.4003897571
 20
-106.6733351494
 30
0.0
 11
2.8063300378
 21
-106.0792754301
 31
0.0
  0
LINE
  5
514
330
405
100
AcDbEntity
  8
0
  6
Continuous
 62
     0
370
    18
100
AcDbLine
 10
-10.6640541438
 20
-83.6286351275
 30
0.0
 11
-14.3816498135
 21
-79.9110394577
 31
0.0
  0
LINE
  5
515
330
405
100
AcDbEntity
  8
0
  6
Continuous
 62
     0
370
    18
100
AcDbLine
 10
-1.6837980227
 20
-92.6088912485
 30
0.0
 11
-6.1739260832
 21
-88.118763188
 31
0.0
  0
LINE
  5
516
330
405
100
AcDbEntity
  8
0
  6
Continuous
 62
     0
370
    18
100
AcDbLine
 10
4.192531305
 20
-98.4852205763
 30
0.0
 11
2.8063300378
 21
-97.0990193091
 31
0.0
  0
LINE
  5
517
330
405
100
AcDbEntity
  8
0
  6
Continuous
 62
     0
370
    18
100
AcDbLine
 10
-10.6640541438
 20
-74.6483790064
 30
0.0
 11
-13.7153864771
 21
-71.5970466731
 31
0.0
  0
LINE
  5
518
330
405
100
AcDbEntity
  8
0
  6
Continuous
 62
     0
370
    18
100
AcDbLine
 10
-1.6837980227
 20
-83.6286351275
 30
0.0
 11
-6.1739260832
 21
-79.1385070669
 31
0.0
  0
LINE
  5
519
330
405
100
AcDbEntity
  8
0
  6
Continuous
 62
     0
370
    18
100
AcDbLine
 10
4.7334707526
 20
-90.0459039028
 30
0.0
 11
2.8063300378
 21
-88.118763188
 31
0.0
  0
LINE
  5
51A
330
405
100
AcDbEntity
  8
0
  6
Continuous
 62
     0
370
    18
100
AcDbLine
 10
-10.6640541438
 20
-65.6681228853
 30
0.0
 11
-13.0491231406
 21
-63.2830538885
 31
0.0
  0
LINE
  5
51B
330
405
100
AcDbEntity
  8
0
  6
Continuous
 62
     0
370
    18
100
AcDbLine
 10
-1.6837980227
 20
-74.6483790064
 30
0.0
 11
-6.1739260832
 21
-70.1582509459
 31
0.0
  0
LINE
  5
51C
330
405
100
AcDbEntity
  8
0
  6
Continuous
 62
     0
370
    18
100
AcDbLine
 10
5.2744102002
 20
-81.6065872293
 30
0.0
 11
2.8063300378
 21
-79.1385070669
 31
0.0
  0
LINE
  5
51D
330
405
100
AcDbEntity
  8
0
  6
Continuous
 62
     0
370
    18
100
AcDbLine
 10
-10.6640541438
 20
-56.6878667642
 30
0.0
 11
-12.1318439084
 21
-55.2200769996
 31
0.0
  0
LINE
  5
51E
330
405
100
AcDbEntity
  8
0
  6
Continuous
 62
     0
370
    18
100
AcDbLine
 10
-1.6837980227
 20
-65.6681228853
 30
0.0
 11
-6.1739260832
 21
-61.1779948248
 31
0.0
  0
LINE
  5
51F
330
405
100
AcDbEntity
  8
0
  6
Continuous
 62
     0
370
    18
100
AcDbLine
 10
5.8153496478
 20
-73.1672705558
 30
0.0
 11
2.8063300378
 21
-70.1582509459
 31
0.0
  0
LINE
  5
520
330
405
100
AcDbEntity
  8
0
  6
Continuous
 62
     0
370
    18
100
AcDbLine
 10
-10.6640541438
 20
-47.7076106432
 30
0.0
 11
-11.7165964676
 21
-46.6550683194
 31
0.0
  0
LINE
  5
521
330
405
100
AcDbEntity
  8
0
  6
Continuous
 62
     0
370
    18
100
AcDbLine
 10
-2.7946630918
 20
-55.5770016951
 30
0.0
 11
-6.1739260832
 21
-52.1977387037
 31
0.0
  0
LINE
  5
522
330
405
100
AcDbEntity
  8
0
  6
Continuous
 62
     0
370
    18
100
AcDbLine
 10
6.3562890954
 20
-64.7279538824
 30
0.0
 11
2.8063300378
 21
-61.1779948248
 31
0.0
  0
LINE
  5
523
330
405
100
AcDbEntity
  8
0
  6
Continuous
 62
     0
370
    18
100
AcDbLine
 10
-10.6640541438
 20
-38.7273545221
 30
0.0
 11
-11.0503331311
 21
-38.3410755348
 31
0.0
  0
LINE
  5
524
330
405
100
AcDbEntity
  8
0
  6
Continuous
 62
     0
370
    18
100
AcDbLine
 10
-1.6837980227
 20
-47.7076106432
 30
0.0
 11
-6.1739260832
 21
-43.2174825826
 31
0.0
  0
LINE
  5
525
330
405
100
AcDbEntity
  8
0
  6
Continuous
 62
     0
370
    18
100
AcDbLine
 10
6.897228543
 20
-56.2886372089
 30
0.0
 11
2.8063300378
 21
-52.1977387037
 31
0.0
  0
LINE
  5
526
330
405
100
AcDbEntity
  8
0
  6
Continuous
 62
     0
370
    18
100
AcDbLine
 10
-1.6837980227
 20
-38.7273545221
 30
0.0
 11
-6.1739260832
 21
-34.2372264616
 31
0.0
  0
LINE
  5
527
330
405
100
AcDbEntity
  8
0
  6
Continuous
 62
     0
370
    18
100
AcDbLine
 10
7.2964580984
 20
-47.7076106432
 30
0.0
 11
2.8063300378
 21
-43.2174825826
 31
0.0
  0
LINE
  5
528
330
405
100
AcDbEntity
  8
0
  6
Continuous
 62
     0
370
    18
100
AcDbLine
 10
-1.6837980227
 20
-29.747098401
 30
0.0
 11
-6.1739260832
 21
-25.2569703405
 31
0.0
  0
LINE
  5
529
330
405
100
AcDbEntity
  8
0
  6
Continuous
 62
     0
370
    18
100
AcDbLine
 10
7.2964580984
 20
-38.7273545221
 30
0.0
 11
2.8063300378
 21
-34.2372264616
 31
0.0
  0
LINE
  5
52A
330
405
100
AcDbEntity
  8
0
  6
Continuous
 62
     0
370
    18
100
AcDbLine
 10
-1.6837980227
 20
-20.76684228
 30
0.0
 11
-6.1739260832
 21
-16.2767142194
 31
0.0
  0
LINE
  5
52B
330
405
100
AcDbEntity
  8
0
  6
Continuous
 62
     0
370
    18
100
AcDbLine
 10
7.2964580984
 20
-29.747098401
 30
0.0
 11
2.8063300378
 21
-25.2569703405
 31
0.0
  0
LINE
  5
52C
330
405
100
AcDbEntity
  8
0
  6
Continuous
 62
     0
370
    18
100
AcDbLine
 10
-1.6837980227
 20
-11.7865861589
 30
0.0
 11
-6.1739260832
 21
-7.2964580984
 31
0.0
  0
LINE
  5
52D
330
405
100
AcDbEntity
  8
0
  6
Continuous
 62
     0
370
    18
100
AcDbLine
 10
7.2964580984
 20
-20.76684228
 30
0.0
 11
2.8063300378
 21
-16.2767142194
 31
0.0
  0
LINE
  5
52E
330
405
100
AcDbEntity
  8
0
  6
Continuous
 62
     0
370
    18
100
AcDbLine
 10
-1.6837980227
 20
-2.8063300378
 30
0.0
 11
-4.7158788275
 21
0.2257507669
 31
0.0
  0
LINE
  5
52F
330
405
100
AcDbEntity
  8
0
  6
Continuous
 62
     0
370
    18
100
AcDbLine
 10
7.2964580984
 20
-11.7865861589
 30
0.0
 11
2.8063300378
 21
-7.2964580984
 31
0.0
  0
LINE
  5
530
330
405
100
AcDbEntity
  8
0
  6
Continuous
 62
     0
370
    18
100
AcDbLine
 10
7.2964580984
 20
-2.8063300378
 30
0.0
 11
2.8063300378
 21
1.6837980227
 31
0.0
  0
LINE
  5
531
330
405
100
AcDbEntity
  8
0
  6
Continuous
 62
     0
370
    18
100
AcDbLine
 10
16.2767142194
 20
-11.7865861589
 30
0.0
 11
11.7865861589
 21
-7.2964580984
 31
0.0
  0
LINE
  5
532
330
405
100
AcDbEntity
  8
0
  6
Continuous
 62
     0
370
    18
100
AcDbLine
 10
16.2767142194
 20
-2.8063300378
 30
0.0
 11
11.7865861589
 21
1.6837980227
 31
0.0
  0
LINE
  5
533
330
405
100
AcDbEntity
  8
0
  6
Continuous
 62
     0
370
    18
100
AcDbLine
 10
24.0762607856
 20
-10.605876604
 30
0.0
 11
20.76684228
 21
-7.2964580984
 31
0.0
  0
LINE
  5
534
330
405
100
AcDbEntity
  8
0
  6
Continuous
 62
     0
370
    18
100
AcDbLine
 10
16.2767142194
 20
6.1739260832
 30
0.0
 11
15.6961474091
 21
6.7544928936
 31
0.0
  0
LINE
  5
535
330
405
100
AcDbEntity
  8
0
  6
Continuous
 62
     0
370
    18
100
AcDbLine
 10
25.2569703405
 20
-2.8063300378
 30
0.0
 11
20.76684228
 21
1.6837980227
 31
0.0
  0
LINE
  5
536
330
405
100
AcDbEntity
  8
0
  6
Continuous
 62
     0
370
    18
100
AcDbLine
 10
31.0390942774
 20
-8.5884539747
 30
0.0
 11
29.747098401
 21
-7.2964580984
 31
0.0
  0
LINE
  5
537
330
405
100
AcDbEntity
  8
0
  6
Continuous
 62
     0
370
    18
100
AcDbLine
 10
25.2569703405
 20
6.1739260832
 30
0.0
 11
22.8415237421
 21
8.5893726816
 31
0.0
  0
LINE
  5
538
330
405
100
AcDbEntity
  8
0
  6
Continuous
 62
     0
370
    18
100
AcDbLine
 10
34.2372264616
 20
-2.8063300378
 30
0.0
 11
29.747098401
 21
1.6837980227
 31
0.0
  0
LINE
  5
539
330
405
100
AcDbEntity
  8
0
  6
Continuous
 62
     0
370
    18
100
AcDbLine
 10
34.2372264616
 20
6.1739260832
 30
0.0
 11
29.9869000751
 21
10.4242524697
 31
0.0
  0
LINE
  5
53A
330
405
100
AcDbEntity
  8
0
  6
Continuous
 62
     0
370
    18
100
AcDbLine
 10
43.2174825826
 20
-2.8063300378
 30
0.0
 11
38.7273545221
 21
1.6837980227
 31
0.0
  0
LINE
  5
53B
330
405
100
AcDbEntity
  8
0
  6
Continuous
 62
     0
370
    18
100
AcDbLine
 10
43.2174825826
 20
6.1739260832
 30
0.0
 11
38.7273545221
 21
10.6640541438
 31
0.0
  0
LINE
  5
53C
330
405
100
AcDbEntity
  8
0
  6
Continuous
 62
     0
370
    18
100
AcDbLine
 10
51.9275947528
 20
-2.5361860869
 30
0.0
 11
47.7076106432
 21
1.6837980227
 31
0.0
  0
LINE
  5
53D
330
405
100
AcDbEntity
  8
0
  6
Continuous
 62
     0
370
    18
100
AcDbLine
 10
52.1977387037
 20
6.1739260832
 30
0.0
 11
47.7076106432
 21
10.6640541438
 31
0.0
  0
LINE
  5
53E
330
405
100
AcDbEntity
  8
0
  6
Continuous
 62
     0
370
    18
100
AcDbLine
 10
58.8904282445
 20
-0.5187634576
 30
0.0
 11
56.6878667642
 21
1.6837980227
 31
0.0
  0
LINE
  5
53F
330
405
100
AcDbEntity
  8
0
  6
Continuous
 62
     0
370
    18
100
AcDbLine
 10
52.1977387037
 20
15.1541822043
 30
0.0
 11
51.4230290741
 21
15.928891834
 31
0.0
  0
LINE
  5
540
330
405
100
AcDbEntity
  8
0
  6
Continuous
 62
     0
370
    18
100
AcDbLine
 10
61.1779948248
 20
6.1739260832
 30
0.0
 11
56.6878667642
 21
10.6640541438
 31
0.0
  0
LINE
  5
541
330
405
100
AcDbEntity
  8
0
  6
Continuous
 62
     0
370
    18
100
AcDbLine
 10
65.8532617363
 20
1.4986591717
 30
0.0
 11
65.6681228853
 21
1.6837980227
 31
0.0
  0
LINE
  5
542
330
405
100
AcDbEntity
  8
0
  6
Continuous
 62
     0
370
    18
100
AcDbLine
 10
61.1779948248
 20
15.1541822043
 30
0.0
 11
58.5684054071
 21
17.763771622
 31
0.0
  0
LINE
  5
543
330
405
100
AcDbEntity
  8
0
  6
Continuous
 62
     0
370
    18
100
AcDbLine
 10
70.1582509459
 20
6.1739260832
 30
0.0
 11
65.6681228853
 21
10.6640541438
 31
0.0
  0
LINE
  5
544
330
405
100
AcDbEntity
  8
0
  6
Continuous
 62
     0
370
    18
100
AcDbLine
 10
70.1582509459
 20
15.1541822043
 30
0.0
 11
65.71378174
 21
19.5986514101
 31
0.0
  0
LINE
  5
545
330
405
100
AcDbEntity
  8
0
  6
Continuous
 62
     0
370
    18
100
AcDbLine
 10
79.1385070669
 20
6.1739260832
 30
0.0
 11
74.6483790064
 21
10.6640541438
 31
0.0
  0
LINE
  5
546
330
405
100
AcDbEntity
  8
0
  6
Continuous
 62
     0
370
    18
100
AcDbLine
 10
79.1385070669
 20
15.1541822043
 30
0.0
 11
74.6483790064
 21
19.6443102648
 31
0.0
  0
LINE
  5
547
330
405
100
AcDbEntity
  8
0
  6
Continuous
 62
     0
370
    18
100
AcDbLine
 10
86.7417622117
 20
7.5509270595
 30
0.0
 11
83.6286351275
 21
10.6640541438
 31
0.0
  0
LINE
  5
548
330
405
100
AcDbEntity
  8
0
  6
Continuous
 62
     0
370
    18
100
AcDbLine
 10
88.118763188
 20
15.1541822043
 30
0.0
 11
83.6286351275
 21
19.6443102648
 31
0.0
  0
LINE
  5
549
330
405
100
AcDbEntity
  8
0
  6
Continuous
 62
     0
370
    18
100
AcDbLine
 10
93.7045957035
 20
9.5683496888
 30
0.0
 11
92.6088912485
 21
10.6640541438
 31
0.0
  0
LINE
  5
54A
330
405
100
AcDbEntity
  8
0
  6
Continuous
 62
     0
370
    18
100
AcDbLine
 10
88.118763188
 20
24.1344383254
 30
0.0
 11
87.149910739
 21
25.1032907744
 31
0.0
  0
LINE
  5
54B
330
405
100
AcDbEntity
  8
0
  6
Continuous
 62
     0
370
    18
100
AcDbLine
 10
97.0990193091
 20
15.1541822043
 30
0.0
 11
92.6088912485
 21
19.6443102648
 31
0.0
  0
LINE
  5
54C
330
405
100
AcDbEntity
  8
0
  6
Continuous
 62
     0
370
    18
100
AcDbLine
 10
97.0990193091
 20
24.1344383254
 30
0.0
 11
94.295287072
 21
26.9381705624
 31
0.0
  0
LINE
  5
54D
330
405
100
AcDbEntity
  8
0
  6
Continuous
 62
     0
370
    18
100
AcDbLine
 10
-8.9802561211
 20
-126.8461177101
 30
0.0
 11
-13.4703841816
 21
-122.3559896496
 31
0.0
  0
LINE
  5
54E
330
405
100
AcDbEntity
  8
0
  6
Continuous
 62
     0
370
    18
100
AcDbLine
 10
-8.9802561211
 20
-117.865861589
 30
0.0
 11
-13.4703841816
 21
-113.3757335285
 31
0.0
  0
LINE
  5
54F
330
405
100
AcDbEntity
  8
0
  6
Continuous
 62
     0
370
    18
100
AcDbLine
 10
0.0
 20
-126.8461177101
 30
0.0
 11
-4.4901280605
 21
-122.3559896496
 31
0.0
  0
LINE
  5
550
330
405
100
AcDbEntity
  8
0
  6
Continuous
 62
     0
370
    18
100
AcDbLine
 10
-8.9802561211
 20
-108.885605468
 30
0.0
 11
-11.0384709568
 21
-106.8273906323
 31
0.0
  0
LINE
  5
551
330
405
100
AcDbEntity
  8
0
  6
Continuous
 62
     0
370
    18
100
AcDbLine
 10
0.0
 20
-117.865861589
 30
0.0
 11
-4.4901280605
 21
-113.3757335285
 31
0.0
  0
LINE
  5
552
330
405
100
AcDbEntity
  8
0
  6
Continuous
 62
     0
370
    18
100
AcDbLine
 10
-8.9802561211
 20
-99.9053493469
 30
0.0
 11
-13.4703841816
 21
-95.4152212864
 31
0.0
  0
LINE
  5
553
330
405
100
AcDbEntity
  8
0
  6
Continuous
 62
     0
370
    18
100
AcDbLine
 10
0.0
 20
-108.885605468
 30
0.0
 11
-1.4981271555
 21
-107.3874783125
 31
0.0
  0
LINE
  5
554
330
405
100
AcDbEntity
  8
0
  6
Continuous
 62
     0
370
    18
100
AcDbLine
 10
-8.9802561211
 20
-90.9250932258
 30
0.0
 11
-13.4703841816
 21
-86.4349651653
 31
0.0
  0
LINE
  5
555
330
405
100
AcDbEntity
  8
0
  6
Continuous
 62
     0
370
    18
100
AcDbLine
 10
0.0
 20
-99.9053493469
 30
0.0
 11
-4.4901280605
 21
-95.4152212864
 31
0.0
  0
LINE
  5
556
330
405
100
AcDbEntity
  8
0
  6
Continuous
 62
     0
370
    18
100
AcDbLine
 10
-8.9802561211
 20
-81.9448371048
 30
0.0
 11
-13.4703841816
 21
-77.4547090442
 31
0.0
  0
LINE
  5
557
330
405
100
AcDbEntity
  8
0
  6
Continuous
 62
     0
370
    18
100
AcDbLine
 10
0.0
 20
-90.9250932258
 30
0.0
 11
-4.4901280605
 21
-86.4349651653
 31
0.0
  0
LINE
  5
558
330
405
100
AcDbEntity
  8
0
  6
Continuous
 62
     0
370
    18
100
AcDbLine
 10
-8.9802561211
 20
-72.9645809837
 30
0.0
 11
-13.4655377259
 21
-68.4792993789
 31
0.0
  0
LINE
  5
559
330
405
100
AcDbEntity
  8
0
  6
Continuous
 62
     0
370
    18
100
AcDbLine
 10
0.0
 20
-81.9448371048
 30
0.0
 11
-4.4901280605
 21
-77.4547090442
 31
0.0
  0
LINE
  5
55A
330
405
100
AcDbEntity
  8
0
  6
Continuous
 62
     0
370
    18
100
AcDbLine
 10
4.9363230455
 20
-86.8811601502
 30
0.0
 11
4.4901280605
 21
-86.4349651653
 31
0.0
  0
LINE
  5
55B
330
405
100
AcDbEntity
  8
0
  6
Continuous
 62
     0
370
    18
100
AcDbLine
 10
-8.9802561211
 20
-63.9843248626
 30
0.0
 11
-12.7992743894
 21
-60.1653065943
 31
0.0
  0
LINE
  5
55C
330
405
100
AcDbEntity
  8
0
  6
Continuous
 62
     0
370
    18
100
AcDbLine
 10
0.0
 20
-72.9645809837
 30
0.0
 11
-4.4901280605
 21
-68.4744529232
 31
0.0
  0
LINE
  5
55D
330
405
100
AcDbEntity
  8
0
  6
Continuous
 62
     0
370
    18
100
AcDbLine
 10
5.4772624931
 20
-78.4418434768
 30
0.0
 11
4.4901280605
 21
-77.4547090442
 31
0.0
  0
LINE
  5
55E
330
405
100
AcDbEntity
  8
0
  6
Continuous
 62
     0
370
    18
100
AcDbLine
 10
-9.3704648475
 20
-54.6138600151
 30
0.0
 11
-12.1330110529
 21
-51.8513138097
 31
0.0
  0
LINE
  5
55F
330
405
100
AcDbEntity
  8
0
  6
Continuous
 62
     0
370
    18
100
AcDbLine
 10
0.0
 20
-63.9843248626
 30
0.0
 11
-4.4901280605
 21
-59.4941968021
 31
0.0
  0
LINE
  5
560
330
405
100
AcDbEntity
  8
0
  6
Continuous
 62
     0
370
    18
100
AcDbLine
 10
6.0182019407
 20
-70.0025268033
 30
0.0
 11
4.4901280605
 21
-68.4744529232
 31
0.0
  0
LINE
  5
561
330
405
100
AcDbEntity
  8
0
  6
Continuous
 62
     0
370
    18
100
AcDbLine
 10
-8.9802561211
 20
-46.0238126205
 30
0.0
 11
-11.4667477164
 21
-43.5373210252
 31
0.0
  0
LINE
  5
562
330
405
100
AcDbEntity
  8
0
  6
Continuous
 62
     0
370
    18
100
AcDbLine
 10
0.0
 20
-55.0040687415
 30
0.0
 11
-4.4901280605
 21
-50.513940681
 31
0.0
  0
LINE
  5
563
330
405
100
AcDbEntity
  8
0
  6
Continuous
 62
     0
370
    18
100
AcDbLine
 10
6.5591413883
 20
-61.5632101298
 30
0.0
 11
4.4901280605
 21
-59.4941968021
 31
0.0
  0
LINE
  5
564
330
405
100
AcDbEntity
  8
0
  6
Continuous
 62
     0
370
    18
100
AcDbLine
 10
-8.9802561211
 20
-37.0435564994
 30
0.0
 11
-10.8004843799
 21
-35.2233282406
 31
0.0
  0
LINE
  5
565
330
405
100
AcDbEntity
  8
0
  6
Continuous
 62
     0
370
    18
100
AcDbLine
 10
0.0
 20
-46.0238126205
 30
0.0
 11
-4.4901280605
 21
-41.5336845599
 31
0.0
  0
LINE
  5
566
330
405
100
AcDbEntity
  8
0
  6
Continuous
 62
     0
370
    18
100
AcDbLine
 10
7.1000808359
 20
-53.1238934564
 30
0.0
 11
4.4901280605
 21
-50.513940681
 31
0.0
  0
LINE
  5
567
330
405
100
AcDbEntity
  8
0
  6
Continuous
 62
     0
370
    18
100
AcDbLine
 10
-8.9802561211
 20
-28.0633003783
 30
0.0
 11
-10.1342210434
 21
-26.909335456
 31
0.0
  0
LINE
  5
568
330
405
100
AcDbEntity
  8
0
  6
Continuous
 62
     0
370
    18
100
AcDbLine
 10
0.0
 20
-37.0435564994
 30
0.0
 11
-4.4901280605
 21
-32.5534284389
 31
0.0
  0
LINE
  5
569
330
405
100
AcDbEntity
  8
0
  6
Continuous
 62
     0
370
    18
100
AcDbLine
 10
7.6410202835
 20
-44.6845767829
 30
0.0
 11
4.4901280605
 21
-41.5336845599
 31
0.0
  0
LINE
  5
56A
330
405
100
AcDbEntity
  8
0
  6
Continuous
 62
     0
370
    18
100
AcDbLine
 10
-8.9802561211
 20
-19.0830442573
 30
0.0
 11
-9.4679577069
 21
-18.5953426714
 31
0.0
  0
LINE
  5
56B
330
405
100
AcDbEntity
  8
0
  6
Continuous
 62
     0
370
    18
100
AcDbLine
 10
0.0
 20
-28.0633003783
 30
0.0
 11
-4.4901280605
 21
-23.5731723178
 31
0.0
  0
LINE
  5
56C
330
405
100
AcDbEntity
  8
0
  6
Continuous
 62
     0
370
    18
100
AcDbLine
 10
8.1819597311
 20
-36.2452601094
 30
0.0
 11
4.4901280605
 21
-32.5534284389
 31
0.0
  0
LINE
  5
56D
330
405
100
AcDbEntity
  8
0
  6
Continuous
 62
     0
370
    18
100
AcDbLine
 10
0.0
 20
-19.0830442573
 30
0.0
 11
-4.4901280605
 21
-14.5929161967
 31
0.0
  0
LINE
  5
56E
330
405
100
AcDbEntity
  8
0
  6
Continuous
 62
     0
370
    18
100
AcDbLine
 10
8.7228991787
 20
-27.8059434359
 30
0.0
 11
4.4901280605
 21
-23.5731723178
 31
0.0
  0
LINE
  5
56F
330
405
100
AcDbEntity
  8
0
  6
Continuous
 62
     0
370
    18
100
AcDbLine
 10
0.0
 20
-10.1027881362
 30
0.0
 11
-4.0065345511
 21
-6.0962535851
 31
0.0
  0
LINE
  5
570
330
405
100
AcDbEntity
  8
0
  6
Continuous
 62
     0
370
    18
100
AcDbLine
 10
8.9802561211
 20
-19.0830442573
 30
0.0
 11
4.4901280605
 21
-14.5929161967
 31
0.0
  0
LINE
  5
571
330
405
100
AcDbEntity
  8
0
  6
Continuous
 62
     0
370
    18
100
AcDbLine
 10
0.0
 20
-1.1225320151
 30
0.0
 11
-2.7704685526
 21
1.6479365375
 31
0.0
  0
LINE
  5
572
330
405
100
AcDbEntity
  8
0
  6
Continuous
 62
     0
370
    18
100
AcDbLine
 10
8.9802561211
 20
-10.1027881362
 30
0.0
 11
4.4901280605
 21
-5.6126600757
 31
0.0
  0
LINE
  5
573
330
405
100
AcDbEntity
  8
0
  6
Continuous
 62
     0
370
    18
100
AcDbLine
 10
8.9802561211
 20
-1.1225320151
 30
0.0
 11
4.4901280605
 21
3.3675960454
 31
0.0
  0
LINE
  5
574
330
405
100
AcDbEntity
  8
0
  6
Continuous
 62
     0
370
    18
100
AcDbLine
 10
17.9605122421
 20
-10.1027881362
 30
0.0
 11
13.4703841816
 21
-5.6126600757
 31
0.0
  0
LINE
  5
575
330
405
100
AcDbEntity
  8
0
  6
Continuous
 62
     0
370
    18
100
AcDbLine
 10
17.9605122421
 20
-1.1225320151
 30
0.0
 11
13.4703841816
 21
3.3675960454
 31
0.0
  0
LINE
  5
576
330
405
100
AcDbEntity
  8
0
  6
Continuous
 62
     0
370
    18
100
AcDbLine
 10
26.687323345
 20
-9.849343118
 30
0.0
 11
22.4506403027
 21
-5.6126600757
 31
0.0
  0
LINE
  5
577
330
405
100
AcDbEntity
  8
0
  6
Continuous
 62
     0
370
    18
100
AcDbLine
 10
26.9407683632
 20
-1.1225320151
 30
0.0
 11
22.4506403027
 21
3.3675960454
 31
0.0
  0
LINE
  5
578
330
405
100
AcDbEntity
  8
0
  6
Continuous
 62
     0
370
    18
100
AcDbLine
 10
33.6501568368
 20
-7.8319204887
 30
0.0
 11
31.4308964237
 21
-5.6126600757
 31
0.0
  0
LINE
  5
579
330
405
100
AcDbEntity
  8
0
  6
Continuous
 62
     0
370
    18
100
AcDbLine
 10
26.9407683632
 20
7.8577241059
 30
0.0
 11
25.521039867
 21
9.2774526022
 31
0.0
  0
LINE
  5
57A
330
405
100
AcDbEntity
  8
0
  6
Continuous
 62
     0
370
    18
100
AcDbLine
 10
35.9210244843
 20
-1.1225320151
 30
0.0
 11
31.4308964237
 21
3.3675960454
 31
0.0
  0
LINE
  5
57B
330
405
100
AcDbEntity
  8
0
  6
Continuous
 62
     0
370
    18
100
AcDbLine
 10
40.6129903286
 20
-5.8144978595
 30
0.0
 11
40.4111525448
 21
-5.6126600757
 31
0.0
  0
LINE
  5
57C
330
405
100
AcDbEntity
  8
0
  6
Continuous
 62
     0
370
    18
100
AcDbLine
 10
35.9210244843
 20
7.8577241059
 30
0.0
 11
32.6664162
 21
11.1123323902
 31
0.0
  0
LINE
  5
57D
330
405
100
AcDbEntity
  8
0
  6
Continuous
 62
     0
370
    18
100
AcDbLine
 10
44.9012806053
 20
-1.1225320151
 30
0.0
 11
40.4111525448
 21
3.3675960454
 31
0.0
  0
LINE
  5
57E
330
405
100
AcDbEntity
  8
0
  6
Continuous
 62
     0
370
    18
100
AcDbLine
 10
44.9012806053
 20
7.8577241059
 30
0.0
 11
40.4111525448
 21
12.3478521665
 31
0.0
  0
LINE
  5
57F
330
405
100
AcDbEntity
  8
0
  6
Continuous
 62
     0
370
    18
100
AcDbLine
 10
53.8815367264
 20
-1.1225320151
 30
0.0
 11
49.3914086659
 21
3.3675960454
 31
0.0
  0
LINE
  5
580
330
405
100
AcDbEntity
  8
0
  6
Continuous
 62
     0
370
    18
100
AcDbLine
 10
53.8815367264
 20
7.8577241059
 30
0.0
 11
49.3914086659
 21
12.3478521665
 31
0.0
  0
LINE
  5
581
330
405
100
AcDbEntity
  8
0
  6
Continuous
 62
     0
370
    18
100
AcDbLine
 10
61.501490804
 20
0.2377700284
 30
0.0
 11
58.3716647869
 21
3.3675960454
 31
0.0
  0
LINE
  5
582
330
405
100
AcDbEntity
  8
0
  6
Continuous
 62
     0
370
    18
100
AcDbLine
 10
62.8617928475
 20
7.8577241059
 30
0.0
 11
58.3716647869
 21
12.3478521665
 31
0.0
  0
LINE
  5
583
330
405
100
AcDbEntity
  8
0
  6
Continuous
 62
     0
370
    18
100
AcDbLine
 10
68.4643242958
 20
2.2551926577
 30
0.0
 11
67.351920908
 21
3.3675960454
 31
0.0
  0
LINE
  5
584
330
405
100
AcDbEntity
  8
0
  6
Continuous
 62
     0
370
    18
100
AcDbLine
 10
62.8617928475
 20
16.837980227
 30
0.0
 11
61.2479215319
 21
18.4518515426
 31
0.0
  0
LINE
  5
585
330
405
100
AcDbEntity
  8
0
  6
Continuous
 62
     0
370
    18
100
AcDbLine
 10
71.8420489686
 20
7.8577241059
 30
0.0
 11
67.351920908
 21
12.3478521665
 31
0.0
  0
LINE
  5
586
330
405
100
AcDbEntity
  8
0
  6
Continuous
 62
     0
370
    18
100
AcDbLine
 10
71.8420489686
 20
16.837980227
 30
0.0
 11
68.3932978649
 21
20.2867313306
 31
0.0
  0
LINE
  5
587
330
405
100
AcDbEntity
  8
0
  6
Continuous
 62
     0
370
    18
100
AcDbLine
 10
80.8223050896
 20
7.8577241059
 30
0.0
 11
76.3321770291
 21
12.3478521665
 31
0.0
  0
LINE
  5
588
330
405
100
AcDbEntity
  8
0
  6
Continuous
 62
     0
370
    18
100
AcDbLine
 10
80.8223050896
 20
16.837980227
 30
0.0
 11
76.3321770291
 21
21.3281082875
 31
0.0
  0
LINE
  5
589
330
405
100
AcDbEntity
  8
0
  6
Continuous
 62
     0
370
    18
100
AcDbLine
 10
89.3528247711
 20
8.3074605455
 30
0.0
 11
85.3124331502
 21
12.3478521665
 31
0.0
  0
LINE
  5
58A
330
405
100
AcDbEntity
  8
0
  6
Continuous
 62
     0
370
    18
100
AcDbLine
 10
89.8025612107
 20
16.837980227
 30
0.0
 11
85.3124331502
 21
21.3281082875
 31
0.0
  0
LINE
  5
58B
330
405
100
AcDbEntity
  8
0
  6
Continuous
 62
     0
370
    18
100
AcDbLine
 10
96.3156582629
 20
10.3248831748
 30
0.0
 11
94.2926892712
 21
12.3478521665
 31
0.0
  0
LINE
  5
58C
330
405
100
AcDbEntity
  8
0
  6
Continuous
 62
     0
370
    18
100
AcDbLine
 10
98.6032880817
 20
17.0175094771
 30
0.0
 11
94.2926892712
 21
21.3281082875
 31
0.0
  0
LINE
  5
58D
330
405
100
AcDbEntity
  8
0
  6
Continuous
 62
     0
370
    18
100
AcDbLine
 10
98.6032880817
 20
25.9977655982
 30
0.0
 11
96.9748031969
 21
27.626250483
 31
0.0
  0
LINE
  5
58E
330
405
100
AcDbEntity
  8
0
  6
Continuous
 62
     0
370
    18
100
AcDbLine
 10
-7.2644160276
 20
-106.0472333593
 30
0.0
 11
-4.4901280605
 21
-103.2729453923
 31
0.0
  0
LINE
  5
58F
330
405
100
AcDbEntity
  8
0
  6
Continuous
 62
     0
370
    18
100
AcDbLine
 10
1.217868217
 20
-106.5452052358
 30
0.0
 11
3.8442507706
 21
-103.9188226823
 31
0.0
  0
LINE
  5
590
330
405
100
AcDbEntity
  8
0
  6
Continuous
 62
     0
370
    18
100
AcDbLine
 10
-6.1399540442
 20
-106.1132474692
 30
0.0
 11
-6.1739260832
 21
-106.0792754301
 31
0.0
  0
LINE
  5
591
330
405
100
AcDbEntity
  8
0
  6
Continuous
 62
     0
370
    18
100
AcDbLine
 10
-12.10266892
 20
-105.763192669
 30
0.0
 11
-13.4703841816
 21
-104.3954774074
 31
0.0
  0
LINE
  5
592
330
405
100
AcDbEntity
  8
0
  6
Continuous
 62
     0
370
    18
100
AcDbLine
 10
-2.5623251187
 20
-106.3232803493
 30
0.0
 11
-4.4901280605
 21
-104.3954774074
 31
0.0
  0
LINE
  5
593
330
405
100
AcDbEntity
  8
0
  6
Continuous
 62
     0
370
    18
100
AcDbLine
 10
0.1223510929
 20
-56.0042496638
 30
0.0
 11
1.1225320151
 21
-55.0040687415
 31
0.0
  0
LINE
  5
594
330
405
100
AcDbEntity
  8
0
  6
Continuous
 62
     0
370
    18
100
AcDbLine
 10
-6.7401441452
 20
-54.9991166871
 30
0.0
 11
-7.8577241059
 21
-53.8815367264
 31
0.0
  0
LINE
  5
595
330
405
100
AcDbEntity
  8
0
  6
Continuous
 62
     0
370
    18
100
AcDbLine
 10
3.7811386638
 20
-56.5401433751
 30
0.0
 11
1.1225320151
 21
-53.8815367264
 31
0.0
  0
LINE
  5
596
330
405
100
AcDbEntity
  8
0
  6
Continuous
 62
     0
370
    18
100
AcDbLine
 10
-6.2627652158
 20
-2.8951691704
 30
0.0
 11
-6.1739260832
 21
-2.8063300378
 31
0.0
  0
LINE
  5
597
330
405
100
AcDbEntity
  8
0
  6
Continuous
 62
     0
370
    18
100
AcDbLine
 10
8.3793287783
 20
-15.1938435395
 30
0.0
 11
11.7865861589
 21
-11.7865861589
 31
0.0
  0
LINE
  5
598
330
405
100
AcDbEntity
  8
0
  6
Continuous
 62
     0
370
    18
100
AcDbLine
 10
6.5490670291
 20
-13.6565092433
 30
0.0
 11
10.1027881362
 21
-10.1027881362
 31
0.0
  0
ENDBLK
  5
407
330
405
100
AcDbEntity
  8
0
100
AcDbBlockEnd
  0
BLOCK
  5
59B
330
59A
100
AcDbEntity
  8
0
100
AcDbBlockBegin
  2
SW_HATCH_4
 70
     0
 10
0.0
 20
0.0
 30
0.0
  3
SW_HATCH_4
  1

  0
LINE
  5
59D
330
59A
100
AcDbEntity
  8
0
  6
Continuous
 62
     0
370
    18
100
AcDbLine
 10
0.0
 20
0.0
 30
0.0
 11
1.4441937073
 21
0.525643522
 31
0.0
  0
LINE
  5
59E
330
59A
100
AcDbEntity
  8
0
  6
Continuous
 62
     0
370
    18
100
AcDbLine
 10
-1.706176708
 20
-3.9997619637
 30
0.0
 11
-0.4058480804
 21
-3.5264810485
 31
0.0
  0
LINE
  5
59F
330
59A
100
AcDbEntity
  8
0
  6
Continuous
 62
     0
370
    18
100
AcDbLine
 10
-1.4550544021
 20
-14.044654202
 30
0.0
 11
-0.1316302863
 21
-13.5629672166
 31
0.0
  0
LINE
  5
5A0
330
59A
100
AcDbEntity
  8
0
  6
Continuous
 62
     0
370
    18
100
AcDbLine
 10
1.0173595065
 20
-0.474402529
 30
0.0
 11
0.4902139407
 21
0.9739180099
 31
0.0
  0
LINE
  5
5A1
330
59A
100
AcDbEntity
  8
0
  6
Continuous
 62
     0
370
    18
100
AcDbLine
 10
5.0867975326
 20
-2.3720126449
 30
0.0
 11
4.9608890711
 21
-2.0260819901
 31
0.0
  0
LINE
  5
5A2
330
59A
100
AcDbEntity
  8
0
  6
Continuous
 62
     0
370
    18
100
AcDbLine
 10
11.1483830536
 20
-19.0260819901
 30
0.0
 11
11.0593242854
 21
-18.7813950354
 31
0.0
  0
LINE
  5
5A3
330
59A
100
AcDbEntity
  8
0
  6
Continuous
 62
     0
370
    18
100
AcDbLine
 10
11.0538456746
 20
-0.2001847348
 30
0.0
 11
10.6265072235
 21
0.9739180099
 31
0.0
  0
ENDBLK
  5
59C
330
59A
100
AcDbEntity
  8
0
100
AcDbBlockEnd
  0
BLOCK
  5
5A6
330
5A5
100
AcDbEntity
  8
0
100
AcDbBlockBegin
  2
SW_HATCH_5
 70
     0
 10
0.0
 20
0.0
 30
0.0
  3
SW_HATCH_5
  1

  0
LINE
  5
5A8
330
5A5
100
AcDbEntity
  8
0
  6
Continuous
 62
     0
370
    18
100
AcDbLine
 10
11.934096284
 20
4.3436558202
 30
0.0
 11
12.706366087
 21
4.6247390413
 31
0.0
  0
LINE
  5
5A9
330
5A5
100
AcDbEntity
  8
0
  6
Continuous
 62
     0
370
    18
100
AcDbLine
 10
7.2492274204
 20
2.6385030024
 30
0.0
 11
7.4588101775
 21
2.7147848876
 31
0.0
  0
LINE
  5
5AA
330
5A5
100
AcDbEntity
  8
0
  6
Continuous
 62
     0
370
    18
100
AcDbLine
 10
-1.2575243242
 20
-3.8364658505
 30
0.0
 11
-0.4058480804
 21
-3.5264810485
 31
0.0
  0
LINE
  5
5AB
330
5A5
100
AcDbEntity
  8
0
  6
Continuous
 62
     0
370
    18
100
AcDbLine
 10
12.2083140782
 20
-5.6928303478
 30
0.0
 11
12.4506317629
 21
-5.6046339233
 31
0.0
  0
LINE
  5
5AC
330
5A5
100
AcDbEntity
  8
0
  6
Continuous
 62
     0
370
    18
100
AcDbLine
 10
-1.0064020183
 20
-13.8813580888
 30
0.0
 11
-0.1316302863
 21
-13.5629672166
 31
0.0
  0
LINE
  5
5AD
330
5A5
100
AcDbEntity
  8
0
  6
Continuous
 62
     0
370
    18
100
AcDbLine
 10
-0.6060328152
 20
-14.5803267231
 30
0.0
 11
-1.0171673755
 21
-13.4507438025
 31
0.0
  0
LINE
  5
5AE
330
5A5
100
AcDbEntity
  8
0
  6
Continuous
 62
     0
370
    18
100
AcDbLine
 10
-0.8802506094
 20
-4.543840555
 30
0.0
 11
-1.2663606737
 21
-3.4830118721
 31
0.0
  0
LINE
  5
5AF
330
5A5
100
AcDbEntity
  8
0
  6
Continuous
 62
     0
370
    18
100
AcDbLine
 10
1.0173595065
 20
-0.474402529
 30
0.0
 11
0.474402529
 21
1.0173595065
 31
0.0
  0
LINE
  5
5B0
330
5A5
100
AcDbEntity
  8
0
  6
Continuous
 62
     0
370
    18
100
AcDbLine
 10
6.9844076485
 20
1.6974253811
 30
0.0
 11
6.794949988
 21
2.2179560252
 31
0.0
  0
LINE
  5
5B1
330
5A5
100
AcDbEntity
  8
0
  6
Continuous
 62
     0
370
    18
100
AcDbLine
 10
11.0538456746
 20
-0.2001847348
 30
0.0
 11
10.510888697
 21
1.2915773007
 31
0.0
  0
LINE
  5
5B2
330
5A5
100
AcDbEntity
  8
0
  6
Continuous
 62
     0
370
    18
100
AcDbLine
 10
12.7044453345
 20
4.5479089415
 30
0.0
 11
12.4975575812
 21
5.1163283721
 31
0.0
  0
ENDBLK
  5
5A7
330
5A5
100
AcDbEntity
  8
0
100
AcDbBlockEnd
  0
BLOCK
  5
5B5
330
5B4
100
AcDbEntity
  8
0
100
AcDbBlockBegin
  2
SW_HATCH_6
 70
     0
 10
0.0
 20
0.0
 30
0.0
  3
SW_HATCH_6
  1

  0
LINE
  5
5B7
330
5B4
100
AcDbEntity
  8
0
  6
Continuous
 62
     0
370
    18
100
AcDbLine
 10
0.0
 20
0.0
 30
0.0
 11
0.3799283717
 21
0.1382826185
 31
0.0
  0
LINE
  5
5B8
330
5B4
100
AcDbEntity
  8
0
  6
Continuous
 62
     0
370
    18
100
AcDbLine
 10
8.9246525043
 20
-0.1304565649
 30
0.0
 11
10.4164145398
 21
0.4125004126
 31
0.0
  0
LINE
  5
5B9
330
5B4
100
AcDbEntity
  8
0
  6
Continuous
 62
     0
370
    18
100
AcDbLine
 10
2.9576043623
 20
-2.302284475
 30
0.0
 11
4.4493663978
 21
-1.7593274975
 31
0.0
  0
LINE
  5
5BA
330
5B4
100
AcDbEntity
  8
0
  6
Continuous
 62
     0
370
    18
100
AcDbLine
 10
12.9940905303
 20
-2.0280666808
 30
0.0
 11
14.0142300316
 21
-1.6567662675
 31
0.0
  0
LINE
  5
5BB
330
5B4
100
AcDbEntity
  8
0
  6
Continuous
 62
     0
370
    18
100
AcDbLine
 10
7.0270423883
 20
-4.1998945909
 30
0.0
 11
8.5188044238
 21
-3.6569376134
 31
0.0
  0
LINE
  5
5BC
330
5B4
100
AcDbEntity
  8
0
  6
Continuous
 62
     0
370
    18
100
AcDbLine
 10
1.0599942464
 20
-6.3717225011
 30
0.0
 11
2.5517562818
 21
-5.8287655235
 31
0.0
  0
LINE
  5
5BD
330
5B4
100
AcDbEntity
  8
0
  6
Continuous
 62
     0
370
    18
100
AcDbLine
 10
11.0964804144
 20
-6.0975047069
 30
0.0
 11
12.5882424499
 21
-5.5545477293
 31
0.0
  0
LINE
  5
5BE
330
5B4
100
AcDbEntity
  8
0
  6
Continuous
 62
     0
370
    18
100
AcDbLine
 10
5.1294322724
 20
-8.269332617
 30
0.0
 11
6.6211943079
 21
-7.7263756395
 31
0.0
  0
LINE
  5
5BF
330
5B4
100
AcDbEntity
  8
0
  6
Continuous
 62
     0
370
    18
100
AcDbLine
 10
0.2511223059
 20
-10.0448922383
 30
0.0
 11
0.6541461659
 21
-9.8982035496
 31
0.0
  0
LINE
  5
5C0
330
5B4
100
AcDbEntity
  8
0
  6
Continuous
 62
     0
370
    18
100
AcDbLine
 10
9.1988702985
 20
-10.1669427329
 30
0.0
 11
10.690632334
 21
-9.6239857554
 31
0.0
  0
LINE
  5
5C1
330
5B4
100
AcDbEntity
  8
0
  6
Continuous
 62
     0
370
    18
100
AcDbLine
 10
3.2318221565
 20
-12.338770643
 30
0.0
 11
4.723584192
 21
-11.7958136655
 31
0.0
  0
LINE
  5
5C2
330
5B4
100
AcDbEntity
  8
0
  6
Continuous
 62
     0
370
    18
100
AcDbLine
 10
13.2683083245
 20
-12.0645528489
 30
0.0
 11
13.7584957075
 21
-11.8861392322
 31
0.0
  0
LINE
  5
5C3
330
5B4
100
AcDbEntity
  8
0
  6
Continuous
 62
     0
370
    18
100
AcDbLine
 10
7.3012601825
 20
-14.236380759
 30
0.0
 11
8.793022218
 21
-13.6934237815
 31
0.0
  0
LINE
  5
5C4
330
5B4
100
AcDbEntity
  8
0
  6
Continuous
 62
     0
370
    18
100
AcDbLine
 10
1.3342120405
 20
-16.4082086691
 30
0.0
 11
2.825974076
 21
-15.8652516916
 31
0.0
  0
LINE
  5
5C5
330
5B4
100
AcDbEntity
  8
0
  6
Continuous
 62
     0
370
    18
100
AcDbLine
 10
11.3706982086
 20
-16.1339908749
 30
0.0
 11
12.8624602441
 21
-15.5910338974
 31
0.0
  0
LINE
  5
5C6
330
5B4
100
AcDbEntity
  8
0
  6
Continuous
 62
     0
370
    18
100
AcDbLine
 10
2.351571547
 20
-16.8826111981
 30
0.0
 11
1.8086145695
 21
-15.3908491626
 31
0.0
  0
LINE
  5
5C7
330
5B4
100
AcDbEntity
  8
0
  6
Continuous
 62
     0
370
    18
100
AcDbLine
 10
2.0773537529
 20
-6.84612503
 30
0.0
 11
1.5343967753
 21
-5.3543629945
 31
0.0
  0
LINE
  5
5C8
330
5B4
100
AcDbEntity
  8
0
  6
Continuous
 62
     0
370
    18
100
AcDbLine
 10
4.249181663
 20
-12.813173172
 30
0.0
 11
3.7062246855
 21
-11.3214111365
 31
0.0
  0
LINE
  5
5C9
330
5B4
100
AcDbEntity
  8
0
  6
Continuous
 62
     0
370
    18
100
AcDbLine
 10
3.9749638688
 20
-2.776687004
 30
0.0
 11
3.4320068913
 21
-1.2849249685
 31
0.0
  0
LINE
  5
5CA
330
5B4
100
AcDbEntity
  8
0
  6
Continuous
 62
     0
370
    18
100
AcDbLine
 10
6.1467917789
 20
-8.743735146
 30
0.0
 11
5.6038348014
 21
-7.2519731105
 31
0.0
  0
LINE
  5
5CB
330
5B4
100
AcDbEntity
  8
0
  6
Continuous
 62
     0
370
    18
100
AcDbLine
 10
8.318619689
 20
-14.710783288
 30
0.0
 11
7.7756627115
 21
-13.2190212525
 31
0.0
  0
LINE
  5
5CC
330
5B4
100
AcDbEntity
  8
0
  6
Continuous
 62
     0
370
    18
100
AcDbLine
 10
8.0444018949
 20
-4.6742971199
 30
0.0
 11
7.5014449173
 21
-3.1825350844
 31
0.0
  0
LINE
  5
5CD
330
5B4
100
AcDbEntity
  8
0
  6
Continuous
 62
     0
370
    18
100
AcDbLine
 10
10.216229805
 20
-10.6413452619
 30
0.0
 11
9.6732728274
 21
-9.1495832264
 31
0.0
  0
LINE
  5
5CE
330
5B4
100
AcDbEntity
  8
0
  6
Continuous
 62
     0
370
    18
100
AcDbLine
 10
12.3880577151
 20
-16.6083934039
 30
0.0
 11
11.8451007376
 21
-15.1166313684
 31
0.0
  0
LINE
  5
5CF
330
5B4
100
AcDbEntity
  8
0
  6
Continuous
 62
     0
370
    18
100
AcDbLine
 10
9.9420120108
 20
-0.6048590939
 30
0.0
 11
9.3990550333
 21
0.8869029416
 31
0.0
  0
LINE
  5
5D0
330
5B4
100
AcDbEntity
  8
0
  6
Continuous
 62
     0
370
    18
100
AcDbLine
 10
12.1138399209
 20
-6.5719072359
 30
0.0
 11
11.5708829434
 21
-5.0801452004
 31
0.0
  0
LINE
  5
5D1
330
5B4
100
AcDbEntity
  8
0
  6
Continuous
 62
     0
370
    18
100
AcDbLine
 10
13.7771068024
 20
-11.1416954354
 30
0.0
 11
13.7427108535
 21
-11.0471933424
 31
0.0
  0
LINE
  5
5D2
330
5B4
100
AcDbEntity
  8
0
  6
Continuous
 62
     0
370
    18
100
AcDbLine
 10
13.9942676627
 20
-2.4552610249
 30
0.0
 11
13.4684930593
 21
-1.0107071743
 31
0.0
  0
ENDBLK
  5
5B6
330
5B4
100
AcDbEntity
  8
0
100
AcDbBlockEnd
  0
BLOCK
  5
5D5
330
5D4
100
AcDbEntity
  8
0
100
AcDbBlockBegin
  2
SW_HATCH_7
 70
     0
 10
0.0
 20
0.0
 30
0.0
  3
SW_HATCH_7
  1

  0
LINE
  5
5D7
330
5D4
100
AcDbEntity
  8
0
  6
Continuous
 62
     0
370
    18
100
AcDbLine
 10
12.2083140782
 20
-5.6928303478
 30
0.0
 11
13.4763232778
 21
-5.2313127424
 31
0.0
  0
LINE
  5
5D8
330
5D4
100
AcDbEntity
  8
0
  6
Continuous
 62
     0
370
    18
100
AcDbLine
 10
12.4825318723
 20
-15.7293165159
 30
0.0
 11
13.2205889537
 21
-15.4606857071
 31
0.0
  0
LINE
  5
5D9
330
5D4
100
AcDbEntity
  8
0
  6
Continuous
 62
     0
370
    18
100
AcDbLine
 10
13.2211584322
 20
-15.4379065677
 30
0.0
 11
12.9569344013
 21
-14.7119570093
 31
0.0
  0
ENDBLK
  5
5D6
330
5D4
100
AcDbEntity
  8
0
100
AcDbBlockEnd
  0
BLOCK
  5
5DC
330
5DB
100
AcDbEntity
  8
0
100
AcDbBlockBegin
  2
SW_HATCH_8
 70
     0
 10
0.0
 20
0.0
 30
0.0
  3
SW_HATCH_8
  1

  0
LINE
  5
5DE
330
5DB
100
AcDbEntity
  8
0
  6
Continuous
 62
     0
370
    18
100
AcDbLine
 10
6.9941233211
 20
2.5456527037
 30
0.0
 11
7.4588101775
 21
2.7147848876
 31
0.0
  0
LINE
  5
5DF
330
5DB
100
AcDbEntity
  8
0
  6
Continuous
 62
     0
370
    18
100
AcDbLine
 10
-1.8697892359
 20
-4.0593120538
 30
0.0
 11
-0.4058480804
 21
-3.5264810485
 31
0.0
  0
LINE
  5
5E0
330
5DB
100
AcDbEntity
  8
0
  6
Continuous
 62
     0
370
    18
100
AcDbLine
 10
-1.61866693
 20
-14.1042042921
 30
0.0
 11
-0.1316302863
 21
-13.5629672166
 31
0.0
  0
LINE
  5
5E1
330
5DB
100
AcDbEntity
  8
0
  6
Continuous
 62
     0
370
    18
100
AcDbLine
 10
6.9844076485
 20
1.6974253811
 30
0.0
 11
6.8941035243
 21
1.9455339232
 31
0.0
  0
ENDBLK
  5
5DD
330
5DB
100
AcDbEntity
  8
0
100
AcDbBlockEnd
  0
BLOCK
  5
5E4
330
5E3
100
AcDbEntity
  8
0
100
AcDbBlockBegin
  2
SW_NOTE_0
 70
     0
 10
0.0
 20
0.0
 30
0.0
  3
SW_NOTE_0
  1

  0
MTEXT
  5
5E6
330
5E3
100
AcDbEntity
  8
FORMAT
 62
     0
100
AcDbMText
 10
0.5494340888
 20
1.7156689602
 30
0.0
 40
3.5
 41
0.0
 71
     1
 72
     1
  1
600x200mm (min)
  7
SLDTEXTSTYLE0
 73
     1
 44
1.0
  0
MTEXT
  5
5E7
330
5E3
100
AcDbEntity
  8
FORMAT
 62
     0
100
AcDbMText
 10
0.5494340888
 20
-2.8100255702
 30
0.0
 40
3.5
 41
0.0
 71
     1
 72
     1
  1
Compacted Gravel Footing
  7
SLDTEXTSTYLE0
 73
     1
 44
1.0
  0
ENDBLK
  5
5E5
330
5E3
100
AcDbEntity
  8
0
100
AcDbBlockEnd
  0
BLOCK
  5
5EC
330
5EB
100
AcDbEntity
  8
0
100
AcDbBlockBegin
  2
SW_NOTE_0_1
 70
     0
 10
0.0
 20
0.0
 30
0.0
  3
SW_NOTE_0_1
  1

  0
MTEXT
  5
5EE
330
5EB
100
AcDbEntity
  8
FORMAT
 62
     0
100
AcDbMText
 10
-47.5857127306
 20
1.7651511981
 30
0.0
 40
3.5
 41
0.0
 71
     1
 72
     1
  1
25mm Sand Bedding
  7
SLDTEXTSTYLE0
 73
     1
 44
1.0
  0
ENDBLK
  5
5ED
330
5EB
100
AcDbEntity
  8
0
100
AcDbBlockEnd
  0
BLOCK
  5
5F2
330
5F1
100
AcDbEntity
  8
0
100
AcDbBlockBegin
  2
SW_NOTE_0_2
 70
     0
 10
0.0
 20
0.0
 30
0.0
  3
SW_NOTE_0_2
  1

  0
MTEXT
  5
5F4
330
5F1
100
AcDbEntity
  8
FORMAT
 62
     0
100
AcDbMText
 10
-81.4609961311
 20
1.8186937238
 30
0.0
 40
3.5
 41
0.0
 71
     1
 72
     1
  1
100mm Compacted Gravel At Base
  7
SLDTEXTSTYLE0
 73
     1
 44
1.0
  0
ENDBLK
  5
5F3
330
5F1
100
AcDbEntity
  8
0
100
AcDbBlockEnd
  0
BLOCK
  5
5F8
330
5F7
100
AcDbEntity
  8
0
100
AcDbBlockBegin
  2
SW_NOTE_0_3
 70
     0
 10
0.0
 20
0.0
 30
0.0
  3
SW_NOTE_0_3
  1

  0
MTEXT
  5
5FA
330
5F7
100
AcDbEntity
  8
FORMAT
 62
     0
100
AcDbMText
 10
-65.4920468064
 20
6.321686056
 30
0.0
 40
3.5
 41
0.0
 71
     1
 72
     1
  1
Freestone Rockface Blocks
  7
SLDTEXTSTYLE0
 73
     1
 44
1.0
  0
MTEXT
  5
5FB
330
5F7
100
AcDbEntity
  8
FORMAT
 62
     0
100
AcDbMText
 10
-65.4920468064
 20
1.7959915256
 30
0.0
 40
3.5
 41
0.0
 71
     1
 72
     1
  1
Filled with No-Fines Cencrete
  7
SLDTEXTSTYLE0
 73
     1
 44
1.0
  0
ENDBLK
  5
5F9
330
5F7
100
AcDbEntity
  8
0
100
AcDbBlockEnd
  0
BLOCK
  5
5FF
330
5FE
100
AcDbEntity
  8
0
100
AcDbBlockBegin
  2
SW_NOTE_0_4
 70
     0
 10
0.0
 20
0.0
 30
0.0
  3
SW_NOTE_0_4
  1

  0
MTEXT
  5
601
330
5FE
100
AcDbEntity
  8
FORMAT
 62
     0
100
AcDbMText
 10
-92.3250142722
 20
12.4124786994
 30
0.0
 40
3.5
 41
0.0
 71
     1
 72
     1
  1
Freestone Rockface
  7
SLDTEXTSTYLE0
 73
     1
 44
1.0
  0
MTEXT
  5
602
330
5FE
100
AcDbEntity
  8
FORMAT
 62
     0
100
AcDbMText
 10
-45.7215432315
 20
12.3475257942
 30
0.0
 40
3.4395833333
 41
0.0
 71
     1
 72
     1
  1
Capping Block
  7
SLDTEXTSTYLE0
 73
     1
 44
1.0
  0
MTEXT
  5
603
330
5FE
100
AcDbEntity
  8
FORMAT
 62
     0
100
AcDbMText
 10
-92.3250142722
 20
6.7484866531
 30
0.0
 40
3.4395833333
 41
0.0
 71
     1
 72
     1
  1
Fixed To Block With 2 Part Epoxy Adhesive
  7
SLDTEXTSTYLE0
 73
     1
 44
1.0
  0
MTEXT
  5
604
330
5FE
100
AcDbEntity
  8
FORMAT
 62
     0
100
AcDbMText
 10
-92.3250142722
 20
1.1623756663
 30
0.0
 40
3.4395833333
 41
0.0
 71
     1
 72
     1
  1
In High Use Areas
  7
SLDTEXTSTYLE0
 73
     1
 44
1.0
  0
ENDBLK
  5
600
330
5FE
100
AcDbEntity
  8
0
100
AcDbBlockEnd
  0
BLOCK
  5
608
330
607
100
AcDbEntity
  8
0
100
AcDbBlockBegin
  2
SW_NOTE_0_5
 70
     0
 10
0.0
 20
0.0
 30
0.0
  3
SW_NOTE_0_5
  1

  0
MTEXT
  5
60A
330
607
100
AcDbEntity
  8
FORMAT
 62
     0
100
AcDbMText
 10
-96.446800693
 20
17.946153702
 30
0.0
 40
3.4395833333
 41
0.0
 71
     1
 72
     1
  1
Open Drain At 1:100 Min Fall.
  7
SLDTEXTSTYLE0
 73
     1
 44
1.0
  0
MTEXT
  5
60B
330
607
100
AcDbEntity
  8
FORMAT
 62
     0
100
AcDbMText
 10
-96.446800693
 20
12.3471145609
 30
0.0
 40
3.4395833333
 41
0.0
 71
     1
 72
     1
  1
Divert Surface Water Away From Face Of The Wall
  7
SLDTEXTSTYLE0
 73
     1
 44
1.0
  0
MTEXT
  5
60C
330
607
100
AcDbEntity
  8
FORMAT
 62
     0
100
AcDbMText
 10
-96.446800693
 20
6.7610035741
 30
0.0
 40
3.4395833333
 41
0.0
 71
     1
 72
     1
  1
Connect To Stormwater System
  7
SLDTEXTSTYLE0
 73
     1
 44
1.0
  0
MTEXT
  5
60D
330
607
100
AcDbEntity
  8
FORMAT
 62
     0
100
AcDbMText
 10
-96.446800693
 20
1.1748925873
 30
0.0
 40
3.4395833333
 41
0.0
 71
     1
 72
     1
  1
In Accordance With Council Requirements.
  7
SLDTEXTSTYLE0
 73
     1
 44
1.0
  0
ENDBLK
  5
609
330
607
100
AcDbEntity
  8
0
100
AcDbBlockEnd
  0
BLOCK
  5
611
330
610
100
AcDbEntity
  8
0
100
AcDbBlockBegin
  2
SW_NOTE_0_6
 70
     0
 10
0.0
 20
0.0
 30
0.0
  3
SW_NOTE_0_6
  1

  0
MTEXT
  5
613
330
610
100
AcDbEntity
  8
FORMAT
 62
     0
100
AcDbMText
 10
0.5552423201
 20
1.239384299
 30
0.0
 40
3.4395833333
 41
0.0
 71
     1
 72
     1
  1
100
  7
SLDTEXTSTYLE0
 73
     1
 44
1.0
  0
MTEXT
  5
614
330
610
100
AcDbEntity
  8
FORMAT
 62
     0
100
AcDbMText
 10
8.1796519472
 20
1.239384299
 30
0.0
 40
3.4395833333
 41
0.0
 71
     1
 72
     1
  1
%%c
  7
SLDTEXTSTYLE0
 73
     1
 44
1.0
  0
MTEXT
  5
615
330
610
100
AcDbEntity
  8
FORMAT
 62
     0
100
AcDbMText
 10
14.6613550208
 20
1.239384299
 30
0.0
 40
3.4395833333
 41
0.0
 71
     1
 72
     1
  1
Slotted Ag Pipe At 1:100 Min Fall.
  7
SLDTEXTSTYLE0
 73
     1
 44
1.0
  0
MTEXT
  5
616
330
610
100
AcDbEntity
  8
FORMAT
 62
     0
100
AcDbMText
 10
0.5552423201
 20
-4.3467266878
 30
0.0
 40
3.4395833333
 41
0.0
 71
     1
 72
     1
  1
Wrap In Geotextile Sock.
  7
SLDTEXTSTYLE0
 73
     1
 44
1.0
  0
MTEXT
  5
617
330
610
100
AcDbEntity
  8
FORMAT
 62
     0
100
AcDbMText
 10
0.5552423201
 20
-9.9328376745
 30
0.0
 40
3.4395833333
 41
0.0
 71
     1
 72
     1
  1
Connect To Stormwater System
  7
SLDTEXTSTYLE0
 73
     1
 44
1.0
  0
MTEXT
  5
618
330
610
100
AcDbEntity
  8
FORMAT
 62
     0
100
AcDbMText
 10
0.5552423201
 20
-15.5189486613
 30
0.0
 40
3.4395833333
 41
0.0
 71
     1
 72
     1
  1
In Accordance With Council Requirements.
  7
SLDTEXTSTYLE0
 73
     1
 44
1.0
  0
ENDBLK
  5
612
330
610
100
AcDbEntity
  8
0
100
AcDbBlockEnd
  0
BLOCK
  5
61C
330
61B
100
AcDbEntity
  8
0
100
AcDbBlockBegin
  2
SW_NOTE_0_7
 70
     0
 10
0.0
 20
0.0
 30
0.0
  3
SW_NOTE_0_7
  1

  0
MTEXT
  5
61E
330
61B
100
AcDbEntity
  8
FORMAT
 62
     0
100
AcDbMText
 10
0.5337357882
 20
1.1627145136
 30
0.0
 40
3.4395833333
 41
0.0
 71
     1
 72
     1
  1
400mm Min No-Fines Concrete Drainage Backfill.
  7
SLDTEXTSTYLE0
 73
     1
 44
1.0
  0
MTEXT
  5
61F
330
61B
100
AcDbEntity
  8
FORMAT
 62
     0
100
AcDbMText
 10
0.5337357882
 20
-4.4363246275
 30
0.0
 40
3.4395833333
 41
0.0
 71
     1
 72
     1
  1
Refer Specification
  7
SLDTEXTSTYLE0
 73
     1
 44
1.0
  0
ENDBLK
  5
61D
330
61B
100
AcDbEntity
  8
0
100
AcDbBlockEnd
  0
BLOCK
  5
623
330
622
100
AcDbEntity
  8
0
100
AcDbBlockBegin
  2
SW_NOTE_0_8
 70
     0
 10
0.0
 20
0.0
 30
0.0
  3
SW_NOTE_0_8
  1

  0
MTEXT
  5
625
330
622
100
AcDbEntity
  8
FORMAT
 62
     0
100
AcDbMText
 10
0.5880923669
 20
1.2234306633
 30
0.0
 40
3.4395833333
 41
0.0
 71
     1
 72
     1
  1
150mm Min Thick Clay
  7
SLDTEXTSTYLE0
 73
     1
 44
1.0
  0
MTEXT
  5
626
330
622
100
AcDbEntity
  8
FORMAT
 62
     0
100
AcDbMText
 10
0.5880923669
 20
-4.3756084777
 30
0.0
 40
3.4395833333
 41
0.0
 71
     1
 72
     1
  1
Sealing Layer
  7
SLDTEXTSTYLE0
 73
     1
 44
1.0
  0
ENDBLK
  5
624
330
622
100
AcDbEntity
  8
0
100
AcDbBlockEnd
  0
ENDSEC
  0
SECTION
  2
ENTITIES
  0
LINE
  5
64
330
1F
100
AcDbEntity
  8
0
  6
Continuous
 62
     7
370
    50
100
AcDbLine
 10
230.0
 20
14.25
 30
0.0
 11
410.0
 21
14.25
 31
0.0
  0
LINE
  5
65
330
1F
100
AcDbEntity
  8
0
  6
Continuous
 62
     7
370
    50
100
AcDbLine
 10
410.0
 20
48.25
 30
0.0
 11
230.0
 21
48.25
 31
0.0
  0
LINE
  5
66
330
1F
100
AcDbEntity
  8
0
  6
Continuous
 62
     7
370
    50
100
AcDbLine
 10
230.0
 20
65.25
 30
0.0
 11
410.0
 21
65.25
 31
0.0
  0
LINE
  5
67
330
1F
100
AcDbEntity
  8
0
  6
Continuous
 62
     7
370
    50
100
AcDbLine
 10
256.9909524338
 20
48.25
 30
0.0
 11
256.9909524338
 21
10.0
 31
0.0
  0
LINE
  5
68
330
1F
100
AcDbEntity
  8
0
  6
Continuous
 62
     7
370
    50
100
AcDbLine
 10
328.8
 20
31.25
 30
0.0
 11
230.0
 21
31.25
 31
0.0
  0
LINE
  5
69
330
1F
100
AcDbEntity
  8
0
  6
Continuous
 62
     7
370
    50
100
AcDbLine
 10
328.8
 20
35.5
 30
0.0
 11
230.0
 21
35.5
 31
0.0
  0
LINE
  5
6A
330
1F
100
AcDbEntity
  8
0
  6
Continuous
 62
     7
370
    50
100
AcDbLine
 10
328.8
 20
39.75
 30
0.0
 11
230.0
 21
39.75
 31
0.0
  0
LINE
  5
6B
330
1F
100
AcDbEntity
  8
0
  6
Continuous
 62
     7
370
    50
100
AcDbLine
 10
328.8
 20
44.0
 30
0.0
 11
230.0
 21
44.0
 31
0.0
  0
LINE
  5
6C
330
1F
100
AcDbEntity
  8
0
  6
Continuous
 62
     7
370
    50
100
AcDbLine
 10
284.6
 20
10.0
 30
0.0
 11
284.6
 21
48.25
 31
0.0
  0
LINE
  5
6D
330
1F
100
AcDbEntity
  8
0
  6
Continuous
 62
     7
370
    50
100
AcDbLine
 10
230.0
 20
65.25
 30
0.0
 11
230.0
 21
10.0
 31
0.0
  0
LINE
  5
6E
330
1F
100
AcDbEntity
  8
0
  6
Continuous
 62
     7
370
    50
100
AcDbLine
 10
237.8
 20
48.25
 30
0.0
 11
237.8
 21
10.0
 31
0.0
  0
LINE
  5
6F
330
1F
100
AcDbEntity
  8
0
  6
Continuous
 62
     7
370
    50
100
AcDbLine
 10
263.8
 20
48.25
 30
0.0
 11
263.8
 21
65.25
 31
0.0
  0
LINE
  5
70
330
1F
100
AcDbEntity
  8
0
  6
Continuous
 62
     7
370
    50
100
AcDbLine
 10
274.3989261635
 20
48.25
 30
0.0
 11
274.3989261635
 21
10.0
 31
0.0
  0
LINE
  5
71
330
1F
100
AcDbEntity
  8
0
  6
Continuous
 62
     7
370
    50
100
AcDbLine
 10
295.0
 20
31.25
 30
0.0
 11
295.0
 21
48.25
 31
0.0
  0
LINE
  5
72
330
1F
100
AcDbEntity
  8
0
  6
Continuous
 62
     7
370
    50
100
AcDbLine
 10
284.6
 20
18.5
 30
0.0
 11
230.0
 21
18.5
 31
0.0
  0
LINE
  5
73
330
1F
100
AcDbEntity
  8
0
  6
Continuous
 62
     7
370
    50
100
AcDbLine
 10
310.6
 20
65.25
 30
0.0
 11
310.6
 21
27.0
 31
0.0
  0
LINE
  5
74
330
1F
100
AcDbEntity
  8
0
  6
Continuous
 62
     7
370
    50
100
AcDbLine
 10
284.6
 20
22.749928
 30
0.0
 11
230.0
 21
22.749928
 31
0.0
  0
LINE
  5
75
330
1F
100
AcDbEntity
  8
0
  6
Continuous
 62
     7
370
    50
100
AcDbLine
 10
284.6
 20
27.0
 30
0.0
 11
230.0
 21
27.0
 31
0.0
  0
LINE
  5
76
330
1F
100
AcDbEntity
  8
0
  6
Continuous
 62
     7
370
    50
100
AcDbLine
 10
284.6
 20
27.0
 30
0.0
 11
410.0
 21
27.0
 31
0.0
  0
LINE
  5
77
330
1F
100
AcDbEntity
  8
0
  6
Continuous
 62
     7
370
    50
100
AcDbLine
 10
328.8
 20
65.25
 30
0.0
 11
328.8
 21
10.0
 31
0.0
  0
LINE
  5
78
330
1F
100
AcDbEntity
  8
0
  6
Continuous
 62
     7
370
    50
100
AcDbLine
 10
373.0
 20
10.0
 30
0.0
 11
373.0
 21
14.25
 31
0.0
  0
LINE
  5
79
330
1F
100
AcDbEntity
  8
0
  6
Continuous
 62
     7
370
    50
100
AcDbLine
 10
380.8
 20
58.875
 30
0.0
 11
380.8
 21
65.25
 31
0.0
  0
LINE
  5
7A
330
1F
100
AcDbEntity
  8
0
  6
Continuous
 62
     7
370
    50
100
AcDbLine
 10
397.0
 20
14.25
 30
0.0
 11
397.0
 21
27.0
 31
0.0
  0
LINE
  5
7B
330
1F
100
AcDbEntity
  8
0
  6
Continuous
 62
     7
370
    50
100
AcDbLine
 10
410.0
 20
58.875
 30
0.0
 11
328.8
 21
58.875
 31
0.0
  0
LINE
  5
7C
330
1F
100
AcDbEntity
  8
0
  6
Continuous
 62
     7
370
    50
100
AcDbLine
 10
410.0
 20
18.5
 30
0.0
 11
397.0
 21
18.5
 31
0.0
  0
LINE
  5
7D
330
1F
100
AcDbEntity
  8
0
  6
Continuous
 62
     7
370
    70
100
AcDbLine
 10
20.0
 20
10.0
 30
0.0
 11
20.0
 21
287.0
 31
0.0
  0
LINE
  5
7E
330
1F
100
AcDbEntity
  8
0
  6
Continuous
 62
     7
370
    70
100
AcDbLine
 10
20.0
 20
287.0
 30
0.0
 11
410.0
 21
287.0
 31
0.0
  0
LINE
  5
7F
330
1F
100
AcDbEntity
  8
0
  6
Continuous
 62
     7
370
    70
100
AcDbLine
 10
410.0
 20
287.0
 30
0.0
 11
410.0
 21
10.0
 31
0.0
  0
LINE
  5
80
330
1F
100
AcDbEntity
  8
0
  6
Continuous
 62
     7
370
    70
100
AcDbLine
 10
410.0
 20
10.0
 30
0.0
 11
20.0
 21
10.0
 31
0.0
  0
LINE
  5
81
330
1F
100
AcDbEntity
  8
0
  6
Continuous
 62
     7
370
    70
100
AcDbLine
 10
15.0
 20
5.0
 30
0.0
 11
15.0
 21
292.0
 31
0.0
  0
LINE
  5
82
330
1F
100
AcDbEntity
  8
0
  6
Continuous
 62
     7
370
    70
100
AcDbLine
 10
15.0
 20
292.0
 30
0.0
 11
415.0
 21
292.0
 31
0.0
  0
LINE
  5
83
330
1F
100
AcDbEntity
  8
0
  6
Continuous
 62
     7
370
    70
100
AcDbLine
 10
415.0
 20
292.0
 30
0.0
 11
415.0
 21
5.0
 31
0.0
  0
LINE
  5
84
330
1F
100
AcDbEntity
  8
0
  6
Continuous
 62
     7
370
    70
100
AcDbLine
 10
415.0
 20
5.0
 30
0.0
 11
15.0
 21
5.0
 31
0.0
  0
LINE
  5
85
330
1F
100
AcDbEntity
  8
0
  6
Continuous
 62
     7
370
    35
100
AcDbLine
 10
15.0
 20
148.5
 30
0.0
 11
25.0
 21
148.5
 31
0.0
  0
LINE
  5
86
330
1F
100
AcDbEntity
  8
0
  6
Continuous
 62
     7
370
    35
100
AcDbLine
 10
215.0
 20
292.0
 30
0.0
 11
215.0
 21
282.0
 31
0.0
  0
LINE
  5
87
330
1F
100
AcDbEntity
  8
0
  6
Continuous
 62
     7
370
    35
100
AcDbLine
 10
415.0
 20
148.5
 30
0.0
 11
405.0
 21
148.5
 31
0.0
  0
LINE
  5
88
330
1F
100
AcDbEntity
  8
0
  6
Continuous
 62
     7
370
    35
100
AcDbLine
 10
215.0
 20
5.0
 30
0.0
 11
215.0
 21
15.0
 31
0.0
  0
LINE
  5
89
330
1F
100
AcDbEntity
  8
0
  6
Continuous
 62
     7
370
    35
100
AcDbLine
 10
20.0
 20
48.5
 30
0.0
 11
15.0
 21
48.5
 31
0.0
  0
LINE
  5
8A
330
1F
100
AcDbEntity
  8
0
  6
Continuous
 62
     7
370
    35
100
AcDbLine
 10
410.0
 20
48.5
 30
0.0
 11
415.0
 21
48.5
 31
0.0
  0
LINE
  5
8B
330
1F
100
AcDbEntity
  8
0
  6
Continuous
 62
     7
370
    35
100
AcDbLine
 10
20.0
 20
98.5
 30
0.0
 11
15.0
 21
98.5
 31
0.0
  0
LINE
  5
8C
330
1F
100
AcDbEntity
  8
0
  6
Continuous
 62
     7
370
    35
100
AcDbLine
 10
410.0
 20
98.5
 30
0.0
 11
415.0
 21
98.5
 31
0.0
  0
LINE
  5
8D
330
1F
100
AcDbEntity
  8
0
  6
Continuous
 62
     7
370
    35
100
AcDbLine
 10
20.0
 20
148.5
 30
0.0
 11
15.0
 21
148.5
 31
0.0
  0
LINE
  5
8E
330
1F
100
AcDbEntity
  8
0
  6
Continuous
 62
     7
370
    35
100
AcDbLine
 10
410.0
 20
148.5
 30
0.0
 11
415.0
 21
148.5
 31
0.0
  0
LINE
  5
8F
330
1F
100
AcDbEntity
  8
0
  6
Continuous
 62
     7
370
    35
100
AcDbLine
 10
20.0
 20
198.5
 30
0.0
 11
15.0
 21
198.5
 31
0.0
  0
LINE
  5
90
330
1F
100
AcDbEntity
  8
0
  6
Continuous
 62
     7
370
    35
100
AcDbLine
 10
410.0
 20
198.5
 30
0.0
 11
415.0
 21
198.5
 31
0.0
  0
LINE
  5
91
330
1F
100
AcDbEntity
  8
0
  6
Continuous
 62
     7
370
    35
100
AcDbLine
 10
20.0
 20
248.5
 30
0.0
 11
15.0
 21
248.5
 31
0.0
  0
LINE
  5
92
330
1F
100
AcDbEntity
  8
0
  6
Continuous
 62
     7
370
    35
100
AcDbLine
 10
410.0
 20
248.5
 30
0.0
 11
415.0
 21
248.5
 31
0.0
  0
LINE
  5
93
330
1F
100
AcDbEntity
  8
0
  6
Continuous
 62
     7
370
    35
100
AcDbLine
 10
65.0
 20
287.0
 30
0.0
 11
65.0
 21
292.0
 31
0.0
  0
LINE
  5
94
330
1F
100
AcDbEntity
  8
0
  6
Continuous
 62
     7
370
    35
100
AcDbLine
 10
65.0
 20
10.0
 30
0.0
 11
65.0
 21
5.0
 31
0.0
  0
LINE
  5
95
330
1F
100
AcDbEntity
  8
0
  6
Continuous
 62
     7
370
    35
100
AcDbLine
 10
115.0
 20
287.0
 30
0.0
 11
115.0
 21
292.0
 31
0.0
  0
LINE
  5
96
330
1F
100
AcDbEntity
  8
0
  6
Continuous
 62
     7
370
    35
100
AcDbLine
 10
115.0
 20
10.0
 30
0.0
 11
115.0
 21
5.0
 31
0.0
  0
LINE
  5
97
330
1F
100
AcDbEntity
  8
0
  6
Continuous
 62
     7
370
    35
100
AcDbLine
 10
165.0
 20
287.0
 30
0.0
 11
165.0
 21
292.0
 31
0.0
  0
LINE
  5
98
330
1F
100
AcDbEntity
  8
0
  6
Continuous
 62
     7
370
    35
100
AcDbLine
 10
165.0
 20
10.0
 30
0.0
 11
165.0
 21
5.0
 31
0.0
  0
LINE
  5
99
330
1F
100
AcDbEntity
  8
0
  6
Continuous
 62
     7
370
    35
100
AcDbLine
 10
215.0
 20
287.0
 30
0.0
 11
215.0
 21
292.0
 31
0.0
  0
LINE
  5
9A
330
1F
100
AcDbEntity
  8
0
  6
Continuous
 62
     7
370
    35
100
AcDbLine
 10
215.0
 20
10.0
 30
0.0
 11
215.0
 21
5.0
 31
0.0
  0
LINE
  5
9B
330
1F
100
AcDbEntity
  8
0
  6
Continuous
 62
     7
370
    35
100
AcDbLine
 10
265.0
 20
287.0
 30
0.0
 11
265.0
 21
292.0
 31
0.0
  0
LINE
  5
9C
330
1F
100
AcDbEntity
  8
0
  6
Continuous
 62
     7
370
    35
100
AcDbLine
 10
265.0
 20
10.0
 30
0.0
 11
265.0
 21
5.0
 31
0.0
  0
LINE
  5
9D
330
1F
100
AcDbEntity
  8
0
  6
Continuous
 62
     7
370
    35
100
AcDbLine
 10
315.0
 20
287.0
 30
0.0
 11
315.0
 21
292.0
 31
0.0
  0
LINE
  5
9E
330
1F
100
AcDbEntity
  8
0
  6
Continuous
 62
     7
370
    35
100
AcDbLine
 10
315.0
 20
10.0
 30
0.0
 11
315.0
 21
5.0
 31
0.0
  0
LINE
  5
9F
330
1F
100
AcDbEntity
  8
0
  6
Continuous
 62
     7
370
    35
100
AcDbLine
 10
365.0
 20
287.0
 30
0.0
 11
365.0
 21
292.0
 31
0.0
  0
LINE
  5
A0
330
1F
100
AcDbEntity
  8
0
  6
Continuous
 62
     7
370
    35
100
AcDbLine
 10
365.0
 20
10.0
 30
0.0
 11
365.0
 21
5.0
 31
0.0
  0
MTEXT
  5
A2
330
1F
100
AcDbEntity
  8
FORMAT
100
AcDbMText
 10
25.6978353554
 20
92.2392487648
 30
0.0
 40
2.6458333333
 41
0.0
 71
     1
 72
     1
  1
\LGENERAL NOTES:
  7
SLDTEXTSTYLE0
 73
     1
 44
1.0
  0
MTEXT
  5
A3
330
1F
100
AcDbEntity
  8
FORMAT
100
AcDbMText
 10
25.6978353554
 20
88.7114710297
 30
0.0
 40
2.6458333333
 41
0.0
 71
     1
 72
     1
  1
REFER TO "ISLAND BLOCK & PAVING" FREESTONE ROCKFACE BLOCK  RETAINING WALL SPECIFICATIONS
  7
SLDTEXTSTYLE0
 73
     1
 44
1.0
  0
MTEXT
  5
A4
330
1F
100
AcDbEntity
  8
FORMAT
100
AcDbMText
 10
25.6978353554
 20
85.1836932946
 30
0.0
 40
2.6458333333
 41
0.0
 71
     1
 72
     1
  1
FOR MAXIMUM WALL HEIGHT AND CONSTRUCTION DETAILS.
  7
SLDTEXTSTYLE0
 73
     1
 44
1.0
  0
MTEXT
  5
A5
330
1F
100
AcDbEntity
  8
FORMAT
100
AcDbMText
 10
25.6978353554
 20
78.1281373586
 30
0.0
 40
2.6458333333
 41
0.0
 71
     1
 72
     1
  1
\LDetails. No fines concrete specification:
  7
SLDTEXTSTYLE0
 73
     1
 44
1.0
  0
MTEXT
  5
A7
330
1F
100
AcDbEntity
  8
FORMAT
100
AcDbMText
 10
25.6978353554
 20
74.6003596235
 30
0.0
 40
2.6458333333
 41
0.0
 71
     1
 72
     1
  1
I .  Aggregate to gp cement ratio to be 6:1 by volume
  7
SLDTEXTSTYLE1
 73
     1
 44
1.0
  0
MTEXT
  5
A8
330
1F
100
AcDbEntity
  8
FORMAT
100
AcDbMText
 10
25.6978353554
 20
71.0725818883
 30
0.0
 40
2.6458333333
 41
0.0
 71
     1
 72
     1
  1
2. Concrete slump to be low (approx 200mm)
  7
SLDTEXTSTYLE0
 73
     1
 44
1.0
  0
MTEXT
  5
A9
330
1F
100
AcDbEntity
  8
FORMAT
100
AcDbMText
 10
25.6978353554
 20
67.5448041532
 30
0.0
 40
2.6458333333
 41
0.0
 71
     1
 72
     1
  1
3. Compressive strength to be greater than 10 mpa
  7
SLDTEXTSTYLE0
 73
     1
 44
1.0
  0
MTEXT
  5
AA
330
1F
100
AcDbEntity
  8
FORMAT
100
AcDbMText
 10
25.6978353554
 20
64.017026418
 30
0.0
 40
2.6458333333
 41
0.0
 71
     1
 72
     1
  1
4. Concrete bulk density to be not less than 1800 kg/m3
  7
SLDTEXTSTYLE0
 73
     1
 44
1.0
  0
MTEXT
  5
AB
330
1F
100
AcDbEntity
  8
FORMAT
100
AcDbMText
 10
25.6978353554
 20
60.4892486829
 30
0.0
 40
2.6458333333
 41
0.0
 71
     1
 72
     1
  1
5. Corefill blocks with no fines concrete prior to backfilling.
  7
SLDTEXTSTYLE0
 73
     1
 44
1.0
  0
MTEXT
  5
AC
330
1F
100
AcDbEntity
  8
FORMAT
100
AcDbMText
 10
25.6978353554
 20
56.9614709477
 30
0.0
 40
2.6458333333
 41
0.0
 71
     1
 72
     1
  1
6. Blocks should be wetted prior to corefilling.
  7
SLDTEXTSTYLE0
 73
     1
 44
1.0
  0
MTEXT
  5
AD
330
1F
100
AcDbEntity
  8
FORMAT
100
AcDbMText
 10
25.6978353554
 20
53.4336932126
 30
0.0
 40
2.6458333333
 41
0.0
 71
     1
 72
     1
  1
7. Blocks should be backfilled with no fines concrete every 2 courses and allowed to cure
  7
SLDTEXTSTYLE0
 73
     1
 44
1.0
  0
MTEXT
  5
AE
330
1F
100
AcDbEntity
  8
FORMAT
100
AcDbMText
 10
29.6665853554
 20
49.9059154775
 30
0.0
 40
2.6458333333
 41
0.0
 71
     1
 72
     1
  1
prior to backfilling of next coursing.
  7
SLDTEXTSTYLE0
 73
     1
 44
1.0
  0
MTEXT
  5
AF
330
1F
100
AcDbEntity
  8
FORMAT
100
AcDbMText
 10
25.6978353554
 20
46.3781377423
 30
0.0
 40
2.6458333333
 41
0.0
 71
     1
 72
     1
  1
8. At least 25% of freestone rockface block wings must be removed form rear of blocks prior to backfilling.
  7
SLDTEXTSTYLE0
 73
     1
 44
1.0
  0
MTEXT
  5
B0
330
1F
100
AcDbEntity
  8
FORMAT
100
AcDbMText
 10
25.6978353554
 20
39.322582272
 30
0.0
 40
2.6458333333
 41
0.0
 71
     1
 72
     1
  1
\LDisclaimer
  7
SLDTEXTSTYLE0
 73
     1
 44
1.0
  0
MTEXT
  5
B1
330
1F
100
AcDbEntity
  8
FORMAT
100
AcDbMText
 10
25.6978353554
 20
35.7948045369
 30
0.0
 40
2.6458333333
 41
0.0
 71
     1
 72
     1
  1
Standard drawings are typical details only.
  7
SLDTEXTSTYLE0
 73
     1
 44
1.0
  0
MTEXT
  5
B2
330
1F
100
AcDbEntity
  8
FORMAT
100
AcDbMText
 10
25.6978353554
 20
32.2670268017
 30
0.0
 40
2.6458333333
 41
0.0
 71
     1
 72
     1
  1
Professional civil / structural engineers must
  7
SLDTEXTSTYLE0
 73
     1
 44
1.0
  0
MTEXT
  5
B3
330
1F
100
AcDbEntity
  8
FORMAT
100
AcDbMText
 10
25.6978353554
 20
28.7392490666
 30
0.0
 40
2.6458333333
 41
0.0
 71
     1
 72
     1
  1
Be engaged to design, certify and modify accordingly
  7
SLDTEXTSTYLE0
 73
     1
 44
1.0
  0
MTEXT
  5
B4
330
1F
100
AcDbEntity
  8
FORMAT
100
AcDbMText
 10
25.6978353554
 20
25.2114713314
 30
0.0
 40
2.6458333333
 41
0.0
 71
     1
 72
     1
  1
The standard retaining wall drawings based on site
  7
SLDTEXTSTYLE0
 73
     1
 44
1.0
  0
MTEXT
  5
B5
330
1F
100
AcDbEntity
  8
FORMAT
100
AcDbMText
 10
25.6978353554
 20
21.6836935963
 30
0.0
 40
2.6458333333
 41
0.0
 71
     1
 72
     1
  1
Specific requirements such as  retained soil backslope,
  7
SLDTEXTSTYLE0
 73
     1
 44
1.0
  0
MTEXT
  5
B6
330
1F
100
AcDbEntity
  8
FORMAT
100
AcDbMText
 10
25.6978353554
 20
18.1559158612
 30
0.0
 40
2.6458333333
 41
0.0
 71
     1
 72
     1
  1
Surcharges and soil properties.
  7
SLDTEXTSTYLE0
 73
     1
 44
1.0
  0
MTEXT
  5
B7
330
1F
100
AcDbEntity
  8
0
  6
Continuous
 62
     7
370
     0
100
AcDbMText
 10
17.3396881428
 20
31.2545330726
 30
0.0
 40
3.96875
 41
0.0
 71
     2
 72
     1
  1
A
  7
SLDTEXTSTYLE0
 73
     1
 44
1.0
  0
MTEXT
  5
B8
330
1F
100
AcDbEntity
  8
0
  6
Continuous
 62
     7
370
     0
100
AcDbMText
 10
412.3396881428
 20
31.2545330726
 30
0.0
 40
3.96875
 41
0.0
 71
     2
 72
     1
  1
A
  7
SLDTEXTSTYLE0
 73
     1
 44
1.0
  0
MTEXT
  5
B9
330
1F
100
AcDbEntity
  8
0
  6
Continuous
 62
     7
370
     0
100
AcDbMText
 10
17.4706018241
 20
75.4456402575
 30
0.0
 40
3.96875
 41
0.0
 71
     2
 72
     1
  1
B
  7
SLDTEXTSTYLE0
 73
     1
 44
1.0
  0
MTEXT
  5
BA
330
1F
100
AcDbEntity
  8
0
  6
Continuous
 62
     7
370
     0
100
AcDbMText
 10
412.4706018241
 20
75.4456402575
 30
0.0
 40
3.96875
 41
0.0
 71
     2
 72
     1
  1
B
  7
SLDTEXTSTYLE0
 73
     1
 44
1.0
  0
MTEXT
  5
BB
330
1F
100
AcDbEntity
  8
0
  6
Continuous
 62
     7
370
     0
100
AcDbMText
 10
17.458658902
 20
125.5045330726
 30
0.0
 40
3.96875
 41
0.0
 71
     2
 72
     1
  1
C
  7
SLDTEXTSTYLE0
 73
     1
 44
1.0
  0
MTEXT
  5
BC
330
1F
100
AcDbEntity
  8
0
  6
Continuous
 62
     7
370
     0
100
AcDbMText
 10
412.458658902
 20
125.5045330726
 30
0.0
 40
3.96875
 41
0.0
 71
     2
 72
     1
  1
C
  7
SLDTEXTSTYLE0
 73
     1
 44
1.0
  0
MTEXT
  5
BD
330
1F
100
AcDbEntity
  8
0
  6
Continuous
 62
     7
370
     0
100
AcDbMText
 10
17.4526872821
 20
175.4456402575
 30
0.0
 40
3.96875
 41
0.0
 71
     2
 72
     1
  1
D
  7
SLDTEXTSTYLE0
 73
     1
 44
1.0
  0
MTEXT
  5
BE
330
1F
100
AcDbEntity
  8
0
  6
Continuous
 62
     7
370
     0
100
AcDbMText
 10
412.4526872821
 20
175.4456402575
 30
0.0
 40
3.96875
 41
0.0
 71
     2
 72
     1
  1
D
  7
SLDTEXTSTYLE0
 73
     1
 44
1.0
  0
MTEXT
  5
BF
330
1F
100
AcDbEntity
  8
0
  6
Continuous
 62
     7
370
     0
100
AcDbMText
 10
17.5078089051
 20
225.5045330726
 30
0.0
 40
3.96875
 41
0.0
 71
     2
 72
     1
  1
E
  7
SLDTEXTSTYLE0
 73
     1
 44
1.0
  0
MTEXT
  5
C0
330
1F
100
AcDbEntity
  8
0
  6
Continuous
 62
     7
370
     0
100
AcDbMText
 10
412.5078089051
 20
225.5045330726
 30
0.0
 40
3.96875
 41
0.0
 71
     2
 72
     1
  1
E
  7
SLDTEXTSTYLE0
 73
     1
 44
1.0
  0
MTEXT
  5
C1
330
1F
100
AcDbEntity
  8
0
  6
Continuous
 62
     7
370
     0
100
AcDbMText
 10
17.4577402091
 20
269.6956402575
 30
0.0
 40
3.96875
 41
0.0
 71
     2
 72
     1
  1
F
  7
SLDTEXTSTYLE0
 73
     1
 44
1.0
  0
MTEXT
  5
C2
330
1F
100
AcDbEntity
  8
0
  6
Continuous
 62
     7
370
     0
100
AcDbMText
 10
412.4577402091
 20
269.6956402575
 30
0.0
 40
3.96875
 41
0.0
 71
     2
 72
     1
  1
F
  7
SLDTEXTSTYLE0
 73
     1
 44
1.0
  0
MTEXT
  5
C3
330
1F
100
AcDbEntity
  8
0
  6
Continuous
 62
     7
370
     0
100
AcDbMText
 10
42.4600369465
 20
9.5045330726
 30
0.0
 40
3.96875
 41
0.0
 71
     2
 72
     1
  1
8
  7
SLDTEXTSTYLE0
 73
     1
 44
1.0
  0
MTEXT
  5
C4
330
1F
100
AcDbEntity
  8
0
  6
Continuous
 62
     7
370
     0
100
AcDbMText
 10
42.4600369465
 20
291.4456402575
 30
0.0
 40
3.96875
 41
0.0
 71
     2
 72
     1
  1
8
  7
SLDTEXTSTYLE0
 73
     1
 44
1.0
  0
MTEXT
  5
C5
330
1F
100
AcDbEntity
  8
0
  6
Continuous
 62
     7
370
     0
100
AcDbMText
 10
89.9600369465
 20
9.5045330726
 30
0.0
 40
3.96875
 41
0.0
 71
     2
 72
     1
  1
7
  7
SLDTEXTSTYLE0
 73
     1
 44
1.0
  0
MTEXT
  5
C6
330
1F
100
AcDbEntity
  8
0
  6
Continuous
 62
     7
370
     0
100
AcDbMText
 10
89.9600369465
 20
291.4456402575
 30
0.0
 40
3.96875
 41
0.0
 71
     2
 72
     1
  1
7
  7
SLDTEXTSTYLE0
 73
     1
 44
1.0
  0
MTEXT
  5
C7
330
1F
100
AcDbEntity
  8
0
  6
Continuous
 62
     7
370
     0
100
AcDbMText
 10
139.9600369465
 20
9.5045330726
 30
0.0
 40
3.96875
 41
0.0
 71
     2
 72
     1
  1
6
  7
SLDTEXTSTYLE0
 73
     1
 44
1.0
  0
MTEXT
  5
C8
330
1F
100
AcDbEntity
  8
0
  6
Continuous
 62
     7
370
     0
100
AcDbMText
 10
139.9600369465
 20
291.4456402575
 30
0.0
 40
3.96875
 41
0.0
 71
     2
 72
     1
  1
6
  7
SLDTEXTSTYLE0
 73
     1
 44
1.0
  0
MTEXT
  5
C9
330
1F
100
AcDbEntity
  8
0
  6
Continuous
 62
     7
370
     0
100
AcDbMText
 10
189.9600369465
 20
9.5045330726
 30
0.0
 40
3.96875
 41
0.0
 71
     2
 72
     1
  1
5
  7
SLDTEXTSTYLE0
 73
     1
 44
1.0
  0
MTEXT
  5
CA
330
1F
100
AcDbEntity
  8
0
  6
Continuous
 62
     7
370
     0
100
AcDbMText
 10
189.9600369465
 20
291.4456402575
 30
0.0
 40
3.96875
 41
0.0
 71
     2
 72
     1
  1
5
  7
SLDTEXTSTYLE0
 73
     1
 44
1.0
  0
MTEXT
  5
CB
330
1F
100
AcDbEntity
  8
0
  6
Continuous
 62
     7
370
     0
100
AcDbMText
 10
239.9600369465
 20
9.5045330726
 30
0.0
 40
3.96875
 41
0.0
 71
     2
 72
     1
  1
4
  7
SLDTEXTSTYLE0
 73
     1
 44
1.0
  0
MTEXT
  5
CC
330
1F
100
AcDbEntity
  8
0
  6
Continuous
 62
     7
370
     0
100
AcDbMText
 10
239.9600369465
 20
291.4456402575
 30
0.0
 40
3.96875
 41
0.0
 71
     2
 72
     1
  1
4
  7
SLDTEXTSTYLE0
 73
     1
 44
1.0
  0
MTEXT
  5
CD
330
1F
100
AcDbEntity
  8
0
  6
Continuous
 62
     7
370
     0
100
AcDbMText
 10
289.9600369465
 20
9.5045330726
 30
0.0
 40
3.96875
 41
0.0
 71
     2
 72
     1
  1
3
  7
SLDTEXTSTYLE0
 73
     1
 44
1.0
  0
MTEXT
  5
CE
330
1F
100
AcDbEntity
  8
0
  6
Continuous
 62
     7
370
     0
100
AcDbMText
 10
289.9600369465
 20
291.4456402575
 30
0.0
 40
3.96875
 41
0.0
 71
     2
 72
     1
  1
3
  7
SLDTEXTSTYLE0
 73
     1
 44
1.0
  0
MTEXT
  5
CF
330
1F
100
AcDbEntity
  8
0
  6
Continuous
 62
     7
370
     0
100
AcDbMText
 10
339.9600369465
 20
9.5045330726
 30
0.0
 40
3.96875
 41
0.0
 71
     2
 72
     1
  1
2
  7
SLDTEXTSTYLE0
 73
     1
 44
1.0
  0
MTEXT
  5
D0
330
1F
100
AcDbEntity
  8
0
  6
Continuous
 62
     7
370
     0
100
AcDbMText
 10
339.9600369465
 20
291.4456402575
 30
0.0
 40
3.96875
 41
0.0
 71
     2
 72
     1
  1
2
  7
SLDTEXTSTYLE0
 73
     1
 44
1.0
  0
MTEXT
  5
D1
330
1F
100
AcDbEntity
  8
0
  6
Continuous
 62
     7
370
     0
100
AcDbMText
 10
387.4600369465
 20
9.5045330726
 30
0.0
 40
3.96875
 41
0.0
 71
     2
 72
     1
  1
1
  7
SLDTEXTSTYLE0
 73
     1
 44
1.0
  0
MTEXT
  5
D2
330
1F
100
AcDbEntity
  8
0
  6
Continuous
 62
     7
370
     0
100
AcDbMText
 10
387.4600369465
 20
291.4456402575
 30
0.0
 40
3.96875
 41
0.0
 71
     2
 72
     1
  1
1
  7
SLDTEXTSTYLE0
 73
     1
 44
1.0
  0
MTEXT
  5
D4
330
1F
100
AcDbEntity
  8
0
  6
Continuous
 62
     7
370
     0
100
AcDbMText
 10
230.6433628979
 20
42.3847813173
 30
0.0
 40
1.5
 41
0.0
 71
     1
 72
     1
  1
DRAWN
  7
SLDTEXTSTYLE2
 73
     1
 44
1.0
  0
MTEXT
  5
D5
330
1F
100
AcDbEntity
  8
0
  6
Continuous
 62
     7
370
     0
100
AcDbMText
 10
230.9392221937
 20
38.1618530186
 30
0.0
 40
1.5
 41
0.0
 71
     1
 72
     1
  1
CHK'D
  7
SLDTEXTSTYLE0
 73
     1
 44
1.0
  0
MTEXT
  5
D6
330
1F
100
AcDbEntity
  8
0
  6
Continuous
 62
     7
370
     0
100
AcDbMText
 10
230.4017224083
 20
34.0658666243
 30
0.0
 40
1.5
 41
0.0
 71
     1
 72
     1
  1
APPV'D
  7
SLDTEXTSTYLE0
 73
     1
 44
1.0
  0
MTEXT
  5
D7
330
1F
100
AcDbEntity
  8
0
  6
Continuous
 62
     7
370
     0
100
AcDbMText
 10
231.1240107386
 20
29.7157844608
 30
0.0
 40
1.5
 41
0.0
 71
     1
 72
     1
  1
MFG
  7
SLDTEXTSTYLE0
 73
     1
 44
1.0
  0
MTEXT
  5
D8
330
1F
100
AcDbEntity
  8
0
  6
Continuous
 62
     7
370
     0
100
AcDbMText
 10
231.509036604
 20
25.504662132
 30
0.0
 40
1.5
 41
0.0
 71
     1
 72
     1
  1
Q.A
  7
SLDTEXTSTYLE0
 73
     1
 44
1.0
  0
MTEXT
  5
D9
330
1F
100
AcDbEntity
  8
0
  6
Continuous
 62
     7
370
     0
100
AcDbMText
 10
230.5936687456
 20
63.9209714839
 30
0.0
 40
1.5
 41
0.0
 71
     1
 72
     1
  1
UNLESS OTHERWISE SPECIFIED:
  7
SLDTEXTSTYLE0
 73
     1
 44
1.0
  0
MTEXT
  5
DA
330
1F
100
AcDbEntity
  8
0
  6
Continuous
 62
     7
370
     0
100
AcDbMText
 10
230.5936687456
 20
61.4209715398
 30
0.0
 40
1.5
 41
0.0
 71
     1
 72
     1
  1
DIMENSIONS ARE IN MILLIMETERS
  7
SLDTEXTSTYLE0
 73
     1
 44
1.0
  0
MTEXT
  5
DB
330
1F
100
AcDbEntity
  8
0
  6
Continuous
 62
     7
370
     0
100
AcDbMText
 10
230.5936687456
 20
58.9209715957
 30
0.0
 40
1.5
 41
0.0
 71
     1
 72
     1
  1
SURFACE FINISH:
  7
SLDTEXTSTYLE0
 73
     1
 44
1.0
  0
MTEXT
  5
DC
330
1F
100
AcDbEntity
  8
0
  6
Continuous
 62
     7
370
     0
100
AcDbMText
 10
230.5936687456
 20
56.4209716516
 30
0.0
 40
1.5
 41
0.0
 71
     1
 72
     1
  1
TOLERANCES:
  7
SLDTEXTSTYLE0
 73
     1
 44
1.0
  0
MTEXT
  5
DD
330
1F
100
AcDbEntity
  8
0
  6
Continuous
 62
     7
370
     0
100
AcDbMText
 10
232.2811687456
 20
53.9209717075
 30
0.0
 40
1.5
 41
0.0
 71
     1
 72
     1
  1
LINEAR:
  7
SLDTEXTSTYLE0
 73
     1
 44
1.0
  0
MTEXT
  5
DE
330
1F
100
AcDbEntity
  8
0
  6
Continuous
 62
     7
370
     0
100
AcDbMText
 10
232.2811687456
 20
51.4209717633
 30
0.0
 40
1.5
 41
0.0
 71
     1
 72
     1
  1
ANGULAR:
  7
SLDTEXTSTYLE0
 73
     1
 44
1.0
  0
MTEXT
  5
DF
330
1F
100
AcDbEntity
  8
0
  6
Continuous
 62
     7
370
     0
100
AcDbMText
 10
264.3712921668
 20
63.9192719951
 30
0.0
 40
1.5
 41
0.0
 71
     1
 72
     1
  1
FINISH:
  7
SLDTEXTSTYLE0
 73
     1
 44
1.0
  0
MTEXT
  5
E0
330
1F
100
AcDbEntity
  8
0
  6
Continuous
 62
     7
370
     0
100
AcDbMText
 10
311.3092156863
 20
64.0030912527
 30
0.0
 40
1.5
 41
0.0
 71
     1
 72
     1
  1
DEBURR AND
  7
SLDTEXTSTYLE0
 73
     1
 44
1.0
  0
MTEXT
  5
E1
330
1F
100
AcDbEntity
  8
0
  6
Continuous
 62
     7
370
     0
100
AcDbMText
 10
311.3092156863
 20
61.5030913086
 30
0.0
 40
1.5
 41
0.0
 71
     1
 72
     1
  1
BREAK SHARP
  7
SLDTEXTSTYLE0
 73
     1
 44
1.0
  0
MTEXT
  5
E2
330
1F
100
AcDbEntity
  8
0
  6
Continuous
 62
     7
370
     0
100
AcDbMText
 10
311.3092156863
 20
59.0030913644
 30
0.0
 40
1.5
 41
0.0
 71
     1
 72
     1
  1
EDGES
  7
SLDTEXTSTYLE0
 73
     1
 44
1.0
  0
MTEXT
  5
E3
330
1F
100
AcDbEntity
  8
0
  6
Continuous
 62
     7
370
     0
100
AcDbMText
 10
244.3222392177
 20
46.5014826335
 30
0.0
 40
1.5
 41
0.0
 71
     1
 72
     1
  1
NAME
  7
SLDTEXTSTYLE0
 73
     1
 44
1.0
  0
MTEXT
  5
E4
330
1F
100
AcDbEntity
  8
0
  6
Continuous
 62
     7
370
     0
100
AcDbMText
 10
260.0335875632
 20
46.5617563795
 30
0.0
 40
1.5
 41
0.0
 71
     1
 72
     1
  1
SIGNATURE
  7
SLDTEXTSTYLE0
 73
     1
 44
1.0
  0
MTEXT
  5
E5
330
1F
100
AcDbEntity
  8
0
  6
Continuous
 62
     7
370
     0
100
AcDbMText
 10
277.2147019657
 20
46.5761792212
 30
0.0
 40
1.5
 41
0.0
 71
     1
 72
     1
  1
DATE
  7
SLDTEXTSTYLE0
 73
     1
 44
1.0
  0
MTEXT
  5
E6
330
1F
100
AcDbEntity
  8
0
  6
Continuous
 62
     7
370
     0
100
AcDbMText
 10
285.6458623088
 20
25.9860562892
 30
0.0
 40
1.5
 41
0.0
 71
     1
 72
     1
  1
MATERIAL:
  7
SLDTEXTSTYLE0
 73
     1
 44
1.0
  0
MTEXT
  5
E7
330
1F
100
AcDbEntity
  8
0
  6
Continuous
 62
     7
370
     0
100
AcDbMText
 10
342.6146405229
 20
62.5329935751
 30
0.0
 40
1.5
 41
0.0
 71
     1
 72
     1
  1
DO NOT SCALE DRAWING
  7
SLDTEXTSTYLE0
 73
     1
 44
1.0
  0
MTEXT
  5
E8
330
1F
100
AcDbEntity
  8
0
  6
Continuous
 62
     7
370
     0
100
AcDbMText
 10
383.3275816993
 20
62.3349086805
 30
0.0
 40
1.5
 41
0.0
 71
     1
 72
     1
  1
REVISION
  7
SLDTEXTSTYLE0
 73
     1
 44
1.0
  0
MTEXT
  5
E9
330
1F
100
AcDbEntity
  8
0
  6
Continuous
 62
     7
370
     0
100
AcDbMText
 10
330.090160639
 20
46.5761792212
 30
0.0
 40
1.5
 41
0.0
 71
     1
 72
     1
  1
TITLE:
  7
SLDTEXTSTYLE0
 73
     1
 44
1.0
  0
MTEXT
  5
EA
330
1F
100
AcDbEntity
  8
0
  6
Continuous
 62
     7
370
     0
100
AcDbMText
 10
329.9530022162
 20
25.9860562892
 30
0.0
 40
1.5
 41
0.0
 71
     1
 72
     1
  1
DWG NO.
  7
SLDTEXTSTYLE0
 73
     1
 44
1.0
  0
MTEXT
  5
EB
330
1F
100
AcDbEntity
  8
0
  6
Continuous
 62
     7
370
     0
100
AcDbMText
 10
330.0739661175
 20
12.9000872745
 30
0.0
 40
1.5
 41
0.0
 71
     1
 72
     1
  1
SCALE:1:10
  7
SLDTEXTSTYLE0
 73
     1
 44
1.0
  0
MTEXT
  5
ED
330
1F
100
AcDbEntity
  8
0
  6
Continuous
 62
     7
370
     0
100
AcDbMText
 10
374.4782944278
 20
12.9000872745
 30
0.0
 40
1.5
 41
0.0
 71
     1
 72
     1
  1
SHEET 4 OF 4
  7
SLDTEXTSTYLE3
 73
     1
 44
1.0
  0
MTEXT
  5
EE
330
1F
100
AcDbEntity
  8
0
  6
Continuous
 62
     7
370
     0
100
AcDbMText
 10
400.8711564346
 20
24.406388569
 30
0.0
 40
2.9104166667
 41
0.0
 71
     1
 72
     1
  1
A3
  7
SLDTEXTSTYLE0
 73
     1
 44
1.0
  0
MTEXT
  5
EF
330
1F
100
AcDbEntity
  8
0
  6
Continuous
 62
     7
370
     0
100
AcDbMText
 10
285.6178111281
 20
12.9493119036
 30
0.0
 40
1.4986
 41
0.0
 71
     1
 72
     1
  1
WEIGHT:
  7
SLDTEXTSTYLE0
 73
     1
 44
1.0
  0
MTEXT
  5
F0
330
1F
100
AcDbEntity
  8
FORMAT
100
AcDbMText
 10
365.311492433
 20
22.8412686913
 30
0.0
 40
5.2916666667
 41
0.0
 71
     2
 72
     1
  1
Wall Detail
  7
SLDTEXTSTYLE0
 73
     1
 44
1.0
  0
MTEXT
  5
F1
330
1F
100
AcDbEntity
  8
FORMAT
100
AcDbMText
 10
369.2093701722
 20
47.5380841611
 30
0.0
 40
5.2916666667
 41
0.0
 71
     2
 72
     1
  1
Freestone Rockface
  7
SLDTEXTSTYLE0
 73
     1
 44
1.0
  0
MTEXT
  5
F2
330
1F
100
AcDbEntity
  8
FORMAT
100
AcDbMText
 10
369.8733988267
 20
40.5059524425
 30
0.0
 40
4.7625
 41
0.0
 71
     2
 72
     1
  1
Gravity Wall 1:4 Backslope
  7
SLDTEXTSTYLE0
 73
     1
 44
1.0
  0
MTEXT
  5
F3
330
1F
100
AcDbEntity
  8
FORMAT
100
AcDbMText
 10
369.3826984576
 20
34.1325287676
 30
0.0
 40
5.2916666667
 41
0.0
 71
     2
 72
     1
  1
No-Fines Concrete
  7
SLDTEXTSTYLE0
 73
     1
 44
1.0
  0
MTEXT
  5
F4
330
1F
100
AcDbEntity
  8
FORMAT
100
AcDbMText
 10
370.8350171158
 20
56.4471321947
 30
0.0
 40
5.2916666667
 41
0.0
 71
     2
 72
     1
  1
Island Block & Paving
  7
SLDTEXTSTYLE0
 73
     1
 44
1.0
  0
LINE
  5
F5
330
1F
100
AcDbEntity
  8
0
  6
Continuous
 62
     7
370
    25
100
AcDbLine
 10
217.7568675162
 20
244.1209877994
 30
0.0
 11
196.5568675162
 21
244.1209877994
 31
0.0
  0
LINE
  5
F6
330
1F
100
AcDbEntity
  8
0
  6
Continuous
 62
     7
370
    25
100
AcDbLine
 10
218.0568675162
 20
243.8209877994
 30
0.0
 11
217.7568675162
 21
244.1209877994
 31
0.0
  0
LINE
  5
F7
330
1F
100
AcDbEntity
  8
0
  6
Continuous
 62
     7
370
    25
100
AcDbLine
 10
217.7568675162
 20
238.2209877994
 30
0.0
 11
218.0568675162
 21
238.5209877994
 31
0.0
  0
LINE
  5
F8
330
1F
100
AcDbEntity
  8
0
  6
Continuous
 62
     7
370
    25
100
AcDbLine
 10
214.3068675162
 20
238.2209877994
 30
0.0
 11
214.8068675162
 21
238.2209877994
 31
0.0
  0
LINE
  5
F9
330
1F
100
AcDbEntity
  8
0
  6
Continuous
 62
     7
370
    25
100
AcDbLine
 10
217.6068675162
 20
238.2209877994
 30
0.0
 11
217.7568675162
 21
238.2209877994
 31
0.0
  0
LINE
  5
FA
330
1F
100
AcDbEntity
  8
0
  6
Continuous
 62
     7
370
    25
100
AcDbLine
 10
214.3068675162
 20
238.2209877994
 30
0.0
 11
214.1060563853
 21
239.4209877994
 31
0.0
  0
LINE
  5
FB
330
1F
100
AcDbEntity
  8
0
  6
Continuous
 62
     7
370
    25
100
AcDbLine
 10
214.1060563853
 20
239.4209877994
 30
0.0
 11
209.0076786471
 21
239.4209877994
 31
0.0
  0
LINE
  5
FC
330
1F
100
AcDbEntity
  8
0
  6
Continuous
 62
     7
370
    25
100
AcDbLine
 10
209.0076786471
 20
239.4209877994
 30
0.0
 11
208.8068675162
 21
238.2209877994
 31
0.0
  0
LINE
  5
FD
330
1F
100
AcDbEntity
  8
0
  6
Continuous
 62
     7
370
    25
100
AcDbLine
 10
196.5568675162
 20
238.2209877994
 30
0.0
 11
196.8068675162
 21
238.2209877994
 31
0.0
  0
LINE
  5
FE
330
1F
100
AcDbEntity
  8
0
  6
Continuous
 62
     7
370
    25
100
AcDbLine
 10
200.7457029462
 20
238.2209877994
 30
0.0
 11
208.8068675162
 21
238.2209877994
 31
0.0
  0
LINE
  5
FF
330
1F
100
AcDbEntity
  8
0
  6
Continuous
 62
     7
370
    25
100
AcDbLine
 10
196.5568675162
 20
238.2209877994
 30
0.0
 11
195.5568675162
 21
239.2209877994
 31
0.0
  0
LINE
  5
100
330
1F
100
AcDbEntity
  8
0
  6
Continuous
 62
     7
370
    25
100
AcDbLine
 10
195.5568675162
 20
239.2209877994
 30
0.0
 11
195.5568675162
 21
243.1209877994
 31
0.0
  0
LINE
  5
101
330
1F
100
AcDbEntity
  8
0
  6
Continuous
 62
     7
370
    25
100
AcDbLine
 10
195.5568675162
 20
243.1209877994
 30
0.0
 11
196.5568675162
 21
244.1209877994
 31
0.0
  0
LINE
  5
102
330
1F
100
AcDbEntity
  8
0
  6
Continuous
 62
     7
370
    25
100
AcDbLine
 10
218.0568675162
 20
238.5209877994
 30
0.0
 11
218.0568675162
 21
243.8209877994
 31
0.0
  0
LINE
  5
103
330
1F
100
AcDbEntity
  8
0
  6
Continuous
 62
     7
370
    25
100
AcDbLine
 10
196.4068675162
 20
198.2209877994
 30
0.0
 11
196.4068675162
 21
218.2209877994
 31
0.0
  0
LINE
  5
104
330
1F
100
AcDbEntity
  8
0
  6
Continuous
 62
     7
370
    25
100
AcDbLine
 10
199.6068675163
 20
218.2209877994
 30
0.0
 11
200.1068675162
 21
198.2209877994
 31
0.0
  0
LINE
  5
105
330
1F
100
AcDbEntity
  8
0
  6
Continuous
 62
     7
370
    25
100
AcDbLine
 10
199.6068675162
 20
218.2209877994
 30
0.0
 11
196.4068675162
 21
218.2209877994
 31
0.0
  0
LINE
  5
106
330
1F
100
AcDbEntity
  8
0
  6
Continuous
 62
     7
370
    25
100
AcDbLine
 10
200.1068675162
 20
198.2209877994
 30
0.0
 11
198.6462336779
 21
198.2209877994
 31
0.0
  0
LINE
  5
107
330
1F
100
AcDbEntity
  8
0
  6
Continuous
 62
     7
370
    25
100
AcDbLine
 10
194.8068675162
 20
198.2209877994
 30
0.0
 11
194.8068675162
 21
217.2709877994
 31
0.0
  0
LINE
  5
108
330
1F
100
AcDbEntity
  8
0
  6
Continuous
 62
     7
370
    25
100
AcDbLine
 10
194.8068675162
 20
217.2709877994
 30
0.0
 11
194.8568675162
 21
217.2709877994
 31
0.0
  0
LINE
  5
109
330
1F
100
AcDbEntity
  8
0
  6
Continuous
 62
     7
370
    25
100
AcDbLine
 10
194.8568675162
 20
217.2709877994
 30
0.0
 11
195.8068675162
 21
218.2209877994
 31
0.0
  0
LINE
  5
10A
330
1F
100
AcDbEntity
  8
0
  6
Continuous
 62
     7
370
    25
100
AcDbLine
 10
196.3068675162
 20
198.2209877994
 30
0.0
 11
196.3068675162
 21
218.2209877994
 31
0.0
  0
LINE
  5
10B
330
1F
100
AcDbEntity
  8
0
  6
Continuous
 62
     7
370
    25
100
AcDbLine
 10
196.3068675162
 20
218.2209877994
 30
0.0
 11
195.8068675162
 21
218.2209877994
 31
0.0
  0
LINE
  5
10C
330
1F
100
AcDbEntity
  8
0
  6
Continuous
 62
     7
370
    25
100
AcDbLine
 10
196.3068675162
 20
218.2209877994
 30
0.0
 11
196.4068675162
 21
218.2209877994
 31
0.0
  0
LINE
  5
10D
330
1F
100
AcDbEntity
  8
0
  6
Continuous
 62
     7
370
    25
100
AcDbLine
 10
213.3068675162
 20
198.2209877994
 30
0.0
 11
213.8068675162
 21
218.2209877994
 31
0.0
  0
LINE
  5
10E
330
1F
100
AcDbEntity
  8
0
  6
Continuous
 62
     7
370
    25
100
AcDbLine
 10
216.6068675162
 20
218.2209877994
 30
0.0
 11
213.8068675162
 21
218.2209877994
 31
0.0
  0
LINE
  5
10F
330
1F
100
AcDbEntity
  8
0
  6
Continuous
 62
     7
370
    25
100
AcDbLine
 10
216.6068675162
 20
218.2209877994
 30
0.0
 11
216.6068675162
 21
198.2209877994
 31
0.0
  0
LINE
  5
110
330
1F
100
AcDbEntity
  8
0
  6
Continuous
 62
     7
370
    25
100
AcDbLine
 10
216.6068675162
 20
198.2209877994
 30
0.0
 11
215.6068675162
 21
198.2209877994
 31
0.0
  0
LINE
  5
111
330
1F
100
AcDbEntity
  8
0
  6
Continuous
 62
     7
370
    25
100
AcDbLine
 10
203.1676006808
 20
216.0565888121
 30
0.0
 11
202.8068675162
 21
218.2209877994
 31
0.0
  0
SPLINE
  5
112
330
1F
100
AcDbEntity
  8
0
  6
Continuous
 62
     7
370
    25
100
AcDbSpline
210
0.0
220
0.0
230
1.0
 70
     8
 71
     3
 72
    12
 73
     8
 74
     0
 42
0.00000001
 43
0.00000001
 40
0.0
 40
0.0
 40
0.0
 40
0.0
 40
0.2398757698998941
 40
0.4797503692233388
 40
0.719658824627507
 40
0.9596385202042479
 40
0.9999999999999999
 40
0.9999999999999999
 40
0.9999999999999999
 40
0.9999999999999999
 10
204.1539946046245
 20
215.2209877993773
 30
0.0
 10
204.0415821839423
 20
215.2320360523841
 30
0.0
 10
203.8167578911423
 20
215.2541325044832
 30
0.0
 10
203.5173626926398
 20
215.426479984528
 30
0.0
 10
203.2903743047989
 20
215.6800411586273
 30
0.0
 10
203.1948226098213
 20
215.9095529911005
 30
0.0
 10
203.1710266497415
 20
216.0380838723037
 30
0.0
 10
203.1676006807924
 20
216.0565888120719
 30
0.0
  0
LINE
  5
113
330
1F
100
AcDbEntity
  8
0
  6
Continuous
 62
     7
370
    25
100
AcDbLine
 10
207.4597404279
 20
215.2209877994
 30
0.0
 11
204.1539946046
 21
215.2209877994
 31
0.0
  0
SPLINE
  5
114
330
1F
100
AcDbEntity
  8
0
  6
Continuous
 62
     7
370
    25
100
AcDbSpline
210
0.0
220
0.0
230
1.0
 70
     8
 71
     3
 72
    12
 73
     8
 74
     0
 42
0.00000001
 43
0.00000001
 40
0.0
 40
0.0
 40
0.0
 40
0.0
 40
0.240041113497661
 40
0.4800839381032843
 40
0.7200812690352236
 40
0.9600054984537408
 40
1.0
 40
1.0
 40
1.0
 40
1.0
 10
208.4461343516906
 20
216.0565888120719
 30
0.0
 10
208.4167409392072
 20
215.9474801421716
 30
0.0
 10
208.3579539047126
 20
215.7292620246014
 30
0.0
 10
208.1385699577527
 20
215.4621908623144
 30
0.0
 10
207.8509622798505
 20
215.2800125399215
 30
0.0
 10
207.6089273854641
 20
215.2236382447449
 30
0.0
 10
207.478391291281
 20
215.2213191493515
 30
0.0
 10
207.4597404278584
 20
215.2209877993773
 30
0.0
  0
LINE
  5
115
330
1F
100
AcDbEntity
  8
0
  6
Continuous
 62
     7
370
    25
100
AcDbLine
 10
208.8068675162
 20
218.2209877994
 30
0.0
 11
208.4461343517
 21
216.0565888121
 31
0.0
  0
LINE
  5
116
330
1F
100
AcDbEntity
  8
0
  6
Continuous
 62
     7
370
    25
100
AcDbLine
 10
208.8068675162
 20
218.2209877994
 30
0.0
 11
213.3068675162
 21
218.2209877994
 31
0.0
  0
LINE
  5
117
330
1F
100
AcDbEntity
  8
0
  6
Continuous
 62
     7
370
    25
100
AcDbLine
 10
213.3068675162
 20
218.2209877994
 30
0.0
 11
213.5068675162
 21
218.2209877994
 31
0.0
  0
LINE
  5
118
330
1F
100
AcDbEntity
  8
0
  6
Continuous
 62
     7
370
    25
100
AcDbLine
 10
213.5068675162
 20
218.2209877994
 30
0.0
 11
213.8068675162
 21
218.2209877994
 31
0.0
  0
LINE
  5
119
330
1F
100
AcDbEntity
  8
0
  6
Continuous
 62
     7
370
    25
100
AcDbLine
 10
201.6068675162
 20
218.2209877994
 30
0.0
 11
202.8068675162
 21
218.2209877994
 31
0.0
  0
LINE
  5
11A
330
1F
100
AcDbEntity
  8
0
  6
Continuous
 62
     7
370
    25
100
AcDbLine
 10
201.1068675162
 20
218.2209877994
 30
0.0
 11
201.6068675162
 21
218.2209877994
 31
0.0
  0
LINE
  5
11B
330
1F
100
AcDbEntity
  8
0
  6
Continuous
 62
     7
370
    25
100
AcDbLine
 10
207.8068675162
 20
198.2209877994
 30
0.0
 11
201.8068675162
 21
198.2209877994
 31
0.0
  0
LINE
  5
11C
330
1F
100
AcDbEntity
  8
0
  6
Continuous
 62
     7
370
    25
100
AcDbLine
 10
216.8068675162
 20
198.2209877994
 30
0.0
 11
216.8068675162
 21
218.2209877994
 31
0.0
  0
LINE
  5
11D
330
1F
100
AcDbEntity
  8
0
  6
Continuous
 62
     7
370
    25
100
AcDbLine
 10
216.8068675162
 20
198.2209877994
 30
0.0
 11
216.6068675162
 21
198.2209877994
 31
0.0
  0
LINE
  5
11E
330
1F
100
AcDbEntity
  8
0
  6
Continuous
 62
     7
370
    25
100
AcDbLine
 10
208.9735341829
 20
219.2209877994
 30
0.0
 11
213.1402008496
 21
219.2209877994
 31
0.0
  0
LINE
  5
11F
330
1F
100
AcDbEntity
  8
0
  6
Continuous
 62
     7
370
    25
100
AcDbLine
 10
213.3068675162
 20
218.2209877994
 30
0.0
 11
213.1402008496
 21
219.2209877994
 31
0.0
  0
LINE
  5
120
330
1F
100
AcDbEntity
  8
0
  6
Continuous
 62
     7
370
    25
100
AcDbLine
 10
208.9735341829
 20
219.2209877994
 30
0.0
 11
208.8068675162
 21
218.2209877994
 31
0.0
  0
LINE
  5
121
330
1F
100
AcDbEntity
  8
0
  6
Continuous
 62
     7
370
    25
100
AcDbLine
 10
208.8068675172
 20
218.2209877995
 30
0.0
 11
208.4461343517
 21
216.0565888121
 31
0.0
  0
LINE
  5
122
330
1F
100
AcDbEntity
  8
0
  6
Continuous
 62
     7
370
    25
100
AcDbLine
 10
195.4068675162
 20
178.2209877994
 30
0.0
 11
195.4068675162
 21
198.2209877994
 31
0.0
  0
LINE
  5
123
330
1F
100
AcDbEntity
  8
0
  6
Continuous
 62
     7
370
    25
100
AcDbLine
 10
198.6068675163
 20
198.2209877994
 30
0.0
 11
199.1068675162
 21
178.2209877994
 31
0.0
  0
LINE
  5
124
330
1F
100
AcDbEntity
  8
0
  6
Continuous
 62
     7
370
    25
100
AcDbLine
 10
198.6068675162
 20
198.2209877994
 30
0.0
 11
195.4068675162
 21
198.2209877994
 31
0.0
  0
LINE
  5
125
330
1F
100
AcDbEntity
  8
0
  6
Continuous
 62
     7
370
    25
100
AcDbLine
 10
199.1068675162
 20
178.2209877994
 30
0.0
 11
197.6462336779
 21
178.2209877994
 31
0.0
  0
LINE
  5
126
330
1F
100
AcDbEntity
  8
0
  6
Continuous
 62
     7
370
    25
100
AcDbLine
 10
193.8068675162
 20
178.2209877994
 30
0.0
 11
193.8068675162
 21
197.2709877994
 31
0.0
  0
LINE
  5
127
330
1F
100
AcDbEntity
  8
0
  6
Continuous
 62
     7
370
    25
100
AcDbLine
 10
193.8068675162
 20
197.2709877994
 30
0.0
 11
193.8568675162
 21
197.2709877994
 31
0.0
  0
LINE
  5
128
330
1F
100
AcDbEntity
  8
0
  6
Continuous
 62
     7
370
    25
100
AcDbLine
 10
193.8568675162
 20
197.2709877994
 30
0.0
 11
194.8068675162
 21
198.2209877994
 31
0.0
  0
LINE
  5
129
330
1F
100
AcDbEntity
  8
0
  6
Continuous
 62
     7
370
    25
100
AcDbLine
 10
195.3068675162
 20
178.2209877994
 30
0.0
 11
195.3068675162
 21
198.2209877994
 31
0.0
  0
LINE
  5
12A
330
1F
100
AcDbEntity
  8
0
  6
Continuous
 62
     7
370
    25
100
AcDbLine
 10
195.3068675162
 20
198.2209877994
 30
0.0
 11
194.8068675162
 21
198.2209877994
 31
0.0
  0
LINE
  5
12B
330
1F
100
AcDbEntity
  8
0
  6
Continuous
 62
     7
370
    25
100
AcDbLine
 10
195.3068675162
 20
198.2209877994
 30
0.0
 11
195.4068675162
 21
198.2209877994
 31
0.0
  0
LINE
  5
12C
330
1F
100
AcDbEntity
  8
0
  6
Continuous
 62
     7
370
    25
100
AcDbLine
 10
212.3068675162
 20
178.2209877994
 30
0.0
 11
212.8068675162
 21
198.2209877994
 31
0.0
  0
LINE
  5
12D
330
1F
100
AcDbEntity
  8
0
  6
Continuous
 62
     7
370
    25
100
AcDbLine
 10
215.6068675162
 20
198.2209877994
 30
0.0
 11
212.8068675162
 21
198.2209877994
 31
0.0
  0
LINE
  5
12E
330
1F
100
AcDbEntity
  8
0
  6
Continuous
 62
     7
370
    25
100
AcDbLine
 10
215.6068675162
 20
198.2209877994
 30
0.0
 11
215.6068675162
 21
178.2209877994
 31
0.0
  0
LINE
  5
12F
330
1F
100
AcDbEntity
  8
0
  6
Continuous
 62
     7
370
    25
100
AcDbLine
 10
215.6068675162
 20
178.2209877994
 30
0.0
 11
214.6068675162
 21
178.2209877994
 31
0.0
  0
LINE
  5
130
330
1F
100
AcDbEntity
  8
0
  6
Continuous
 62
     7
370
    25
100
AcDbLine
 10
202.1676006808
 20
196.0565888121
 30
0.0
 11
201.8068675162
 21
198.2209877994
 31
0.0
  0
SPLINE
  5
131
330
1F
100
AcDbEntity
  8
0
  6
Continuous
 62
     7
370
    25
100
AcDbSpline
210
0.0
220
0.0
230
1.0
 70
     8
 71
     3
 72
    12
 73
     8
 74
     0
 42
0.00000001
 43
0.00000001
 40
0.0
 40
0.0
 40
0.0
 40
0.0
 40
0.2398757698998941
 40
0.4797503692233388
 40
0.719658824627507
 40
0.9596385202042479
 40
0.9999999999999999
 40
0.9999999999999999
 40
0.9999999999999999
 40
0.9999999999999999
 10
203.1539946046244
 20
195.2209877993773
 30
0.0
 10
203.0415821839422
 20
195.2320360523841
 30
0.0
 10
202.8167578911423
 20
195.2541325044832
 30
0.0
 10
202.5173626926398
 20
195.426479984528
 30
0.0
 10
202.2903743047989
 20
195.6800411586273
 30
0.0
 10
202.1948226098212
 20
195.9095529911005
 30
0.0
 10
202.1710266497414
 20
196.0380838723037
 30
0.0
 10
202.1676006807923
 20
196.0565888120719
 30
0.0
  0
LINE
  5
132
330
1F
100
AcDbEntity
  8
0
  6
Continuous
 62
     7
370
    25
100
AcDbLine
 10
206.4597404279
 20
195.2209877994
 30
0.0
 11
203.1539946046
 21
195.2209877994
 31
0.0
  0
SPLINE
  5
133
330
1F
100
AcDbEntity
  8
0
  6
Continuous
 62
     7
370
    25
100
AcDbSpline
210
0.0
220
0.0
230
1.0
 70
     8
 71
     3
 72
    12
 73
     8
 74
     0
 42
0.00000001
 43
0.00000001
 40
0.0
 40
0.0
 40
0.0
 40
0.0
 40
0.2400411134976609
 40
0.4800839381032843
 40
0.7200812690352236
 40
0.9600054984537406
 40
0.9999999999999999
 40
0.9999999999999999
 40
0.9999999999999999
 40
0.9999999999999999
 10
207.4461343516905
 20
196.0565888120719
 30
0.0
 10
207.4167409392071
 20
195.9474801421717
 30
0.0
 10
207.3579539047125
 20
195.7292620246014
 30
0.0
 10
207.1385699577526
 20
195.4621908623144
 30
0.0
 10
206.8509622798504
 20
195.2800125399215
 30
0.0
 10
206.608927385464
 20
195.2236382447449
 30
0.0
 10
206.478391291281
 20
195.2213191493515
 30
0.0
 10
206.4597404278583
 20
195.2209877993773
 30
0.0
  0
LINE
  5
134
330
1F
100
AcDbEntity
  8
0
  6
Continuous
 62
     7
370
    25
100
AcDbLine
 10
207.8068675162
 20
198.2209877994
 30
0.0
 11
207.4461343517
 21
196.0565888121
 31
0.0
  0
LINE
  5
135
330
1F
100
AcDbEntity
  8
0
  6
Continuous
 62
     7
370
    25
100
AcDbLine
 10
207.8068675162
 20
198.2209877994
 30
0.0
 11
212.3068675162
 21
198.2209877994
 31
0.0
  0
LINE
  5
136
330
1F
100
AcDbEntity
  8
0
  6
Continuous
 62
     7
370
    25
100
AcDbLine
 10
212.3068675162
 20
198.2209877994
 30
0.0
 11
212.5068675162
 21
198.2209877994
 31
0.0
  0
LINE
  5
137
330
1F
100
AcDbEntity
  8
0
  6
Continuous
 62
     7
370
    25
100
AcDbLine
 10
212.5068675162
 20
198.2209877994
 30
0.0
 11
212.8068675162
 21
198.2209877994
 31
0.0
  0
LINE
  5
138
330
1F
100
AcDbEntity
  8
0
  6
Continuous
 62
     7
370
    25
100
AcDbLine
 10
200.6068675162
 20
198.2209877994
 30
0.0
 11
201.8068675162
 21
198.2209877994
 31
0.0
  0
LINE
  5
139
330
1F
100
AcDbEntity
  8
0
  6
Continuous
 62
     7
370
    25
100
AcDbLine
 10
200.1068675162
 20
198.2209877994
 30
0.0
 11
200.6068675162
 21
198.2209877994
 31
0.0
  0
LINE
  5
13A
330
1F
100
AcDbEntity
  8
0
  6
Continuous
 62
     7
370
    25
100
AcDbLine
 10
206.8068675172
 20
178.2209877994
 30
0.0
 11
200.8068675162
 21
178.2209877994
 31
0.0
  0
LINE
  5
13B
330
1F
100
AcDbEntity
  8
0
  6
Continuous
 62
     7
370
    25
100
AcDbLine
 10
215.8068675162
 20
178.2209877994
 30
0.0
 11
215.8068675162
 21
198.2209877994
 31
0.0
  0
LINE
  5
13C
330
1F
100
AcDbEntity
  8
0
  6
Continuous
 62
     7
370
    25
100
AcDbLine
 10
215.8068675162
 20
178.2209877994
 30
0.0
 11
215.6068675162
 21
178.2209877994
 31
0.0
  0
LINE
  5
13D
330
1F
100
AcDbEntity
  8
0
  6
Continuous
 62
     7
370
    25
100
AcDbLine
 10
207.9735341829
 20
199.2209877994
 30
0.0
 11
212.1402008496
 21
199.2209877994
 31
0.0
  0
LINE
  5
13E
330
1F
100
AcDbEntity
  8
0
  6
Continuous
 62
     7
370
    25
100
AcDbLine
 10
212.3068675162
 20
198.2209877994
 30
0.0
 11
212.1402008496
 21
199.2209877994
 31
0.0
  0
LINE
  5
13F
330
1F
100
AcDbEntity
  8
0
  6
Continuous
 62
     7
370
    25
100
AcDbLine
 10
207.9735341829
 20
199.2209877994
 30
0.0
 11
207.8068675162
 21
198.2209877994
 31
0.0
  0
LINE
  5
140
330
1F
100
AcDbEntity
  8
0
  6
Continuous
 62
     7
370
    25
100
AcDbLine
 10
207.8068675172
 20
198.2209877995
 30
0.0
 11
207.4461343517
 21
196.0565888121
 31
0.0
  0
LINE
  5
141
330
1F
100
AcDbEntity
  8
0
  6
Continuous
 62
     7
370
    25
100
AcDbLine
 10
197.4068675162
 20
218.2209877994
 30
0.0
 11
197.4068675162
 21
238.2209877994
 31
0.0
  0
LINE
  5
142
330
1F
100
AcDbEntity
  8
0
  6
Continuous
 62
     7
370
    25
100
AcDbLine
 10
200.6068675163
 20
238.2209877994
 30
0.0
 11
201.1068675162
 21
218.2209877994
 31
0.0
  0
LINE
  5
143
330
1F
100
AcDbEntity
  8
0
  6
Continuous
 62
     7
370
    25
100
AcDbLine
 10
200.6068675162
 20
238.2209877994
 30
0.0
 11
197.4068675162
 21
238.2209877994
 31
0.0
  0
LINE
  5
144
330
1F
100
AcDbEntity
  8
0
  6
Continuous
 62
     7
370
    25
100
AcDbLine
 10
201.1068675162
 20
218.2209877994
 30
0.0
 11
199.6462336779
 21
218.2209877994
 31
0.0
  0
LINE
  5
145
330
1F
100
AcDbEntity
  8
0
  6
Continuous
 62
     7
370
    25
100
AcDbLine
 10
197.3068675162
 20
218.2209877994
 30
0.0
 11
197.3068675162
 21
238.2209877994
 31
0.0
  0
LINE
  5
146
330
1F
100
AcDbEntity
  8
0
  6
Continuous
 62
     7
370
    25
100
AcDbLine
 10
197.3068675162
 20
238.2209877994
 30
0.0
 11
197.4068675162
 21
238.2209877994
 31
0.0
  0
LINE
  5
147
330
1F
100
AcDbEntity
  8
0
  6
Continuous
 62
     7
370
    25
100
AcDbLine
 10
195.8068675162
 20
218.2209877994
 30
0.0
 11
195.8068675162
 21
237.2709877994
 31
0.0
  0
LINE
  5
148
330
1F
100
AcDbEntity
  8
0
  6
Continuous
 62
     7
370
    25
100
AcDbLine
 10
195.8068675162
 20
237.2709877994
 30
0.0
 11
195.8568675162
 21
237.2709877994
 31
0.0
  0
LINE
  5
149
330
1F
100
AcDbEntity
  8
0
  6
Continuous
 62
     7
370
    25
100
AcDbLine
 10
195.8568675162
 20
237.2709877994
 30
0.0
 11
196.8068675162
 21
238.2209877994
 31
0.0
  0
LINE
  5
14A
330
1F
100
AcDbEntity
  8
0
  6
Continuous
 62
     7
370
    25
100
AcDbLine
 10
197.3068675162
 20
238.2209877994
 30
0.0
 11
196.8068675162
 21
238.2209877994
 31
0.0
  0
LINE
  5
14B
330
1F
100
AcDbEntity
  8
0
  6
Continuous
 62
     7
370
    25
100
AcDbLine
 10
214.3068675162
 20
218.2209877994
 30
0.0
 11
214.8068675162
 21
238.2209877994
 31
0.0
  0
LINE
  5
14C
330
1F
100
AcDbEntity
  8
0
  6
Continuous
 62
     7
370
    25
100
AcDbLine
 10
217.6068675162
 20
238.2209877994
 30
0.0
 11
214.8068675162
 21
238.2209877994
 31
0.0
  0
LINE
  5
14D
330
1F
100
AcDbEntity
  8
0
  6
Continuous
 62
     7
370
    25
100
AcDbLine
 10
217.6068675162
 20
238.2209877994
 30
0.0
 11
217.6068675162
 21
218.2209877994
 31
0.0
  0
LINE
  5
14E
330
1F
100
AcDbEntity
  8
0
  6
Continuous
 62
     7
370
    25
100
AcDbLine
 10
217.6068675162
 20
218.2209877994
 30
0.0
 11
216.6068675162
 21
218.2209877994
 31
0.0
  0
LINE
  5
14F
330
1F
100
AcDbEntity
  8
0
  6
Continuous
 62
     7
370
    25
100
AcDbLine
 10
204.1676006808
 20
236.0565888121
 30
0.0
 11
203.8068675162
 21
238.2209877994
 31
0.0
  0
SPLINE
  5
150
330
1F
100
AcDbEntity
  8
0
  6
Continuous
 62
     7
370
    25
100
AcDbSpline
210
0.0
220
0.0
230
1.0
 70
     8
 71
     3
 72
    12
 73
     8
 74
     0
 42
0.00000001
 43
0.00000001
 40
0.0
 40
0.0
 40
0.0
 40
0.0
 40
0.2398757698998941
 40
0.4797503692233388
 40
0.719658824627507
 40
0.9596385202042479
 40
0.9999999999999999
 40
0.9999999999999999
 40
0.9999999999999999
 40
0.9999999999999999
 10
205.1539946046246
 20
235.2209877993772
 30
0.0
 10
205.0415821839423
 20
235.2320360523841
 30
0.0
 10
204.8167578911424
 20
235.2541325044832
 30
0.0
 10
204.5173626926399
 20
235.426479984528
 30
0.0
 10
204.290374304799
 20
235.6800411586273
 30
0.0
 10
204.1948226098214
 20
235.9095529911005
 30
0.0
 10
204.1710266497415
 20
236.0380838723037
 30
0.0
 10
204.1676006807924
 20
236.0565888120719
 30
0.0
  0
LINE
  5
151
330
1F
100
AcDbEntity
  8
0
  6
Continuous
 62
     7
370
    25
100
AcDbLine
 10
208.4597404279
 20
235.2209877994
 30
0.0
 11
205.1539946046
 21
235.2209877994
 31
0.0
  0
SPLINE
  5
152
330
1F
100
AcDbEntity
  8
0
  6
Continuous
 62
     7
370
    25
100
AcDbSpline
210
0.0
220
0.0
230
1.0
 70
     8
 71
     3
 72
    12
 73
     8
 74
     0
 42
0.00000001
 43
0.00000001
 40
0.0
 40
0.0
 40
0.0
 40
0.0
 40
0.240041113497661
 40
0.4800839381032843
 40
0.7200812690352236
 40
0.9600054984537408
 40
1.0
 40
1.0
 40
1.0
 40
1.0
 10
209.4461343516906
 20
236.0565888120719
 30
0.0
 10
209.4167409392072
 20
235.9474801421716
 30
0.0
 10
209.3579539047126
 20
235.7292620246014
 30
0.0
 10
209.1385699577527
 20
235.4621908623144
 30
0.0
 10
208.8509622798506
 20
235.2800125399214
 30
0.0
 10
208.6089273854641
 20
235.2236382447449
 30
0.0
 10
208.4783912912811
 20
235.2213191493515
 30
0.0
 10
208.4597404278585
 20
235.2209877993772
 30
0.0
  0
LINE
  5
153
330
1F
100
AcDbEntity
  8
0
  6
Continuous
 62
     7
370
    25
100
AcDbLine
 10
209.8068675162
 20
238.2209877994
 30
0.0
 11
209.4461343517
 21
236.0565888121
 31
0.0
  0
LINE
  5
154
330
1F
100
AcDbEntity
  8
0
  6
Continuous
 62
     7
370
    25
100
AcDbLine
 10
209.8068675162
 20
238.2209877994
 30
0.0
 11
214.3068675162
 21
238.2209877994
 31
0.0
  0
LINE
  5
155
330
1F
100
AcDbEntity
  8
0
  6
Continuous
 62
     7
370
    25
100
AcDbLine
 10
200.6068675162
 20
238.2209877994
 30
0.0
 11
200.7457029462
 21
238.2209877994
 31
0.0
  0
LINE
  5
156
330
1F
100
AcDbEntity
  8
0
  6
Continuous
 62
     7
370
    25
100
AcDbLine
 10
208.8068675162
 20
218.2209877994
 30
0.0
 11
202.8068675163
 21
218.2209877994
 31
0.0
  0
LINE
  5
157
330
1F
100
AcDbEntity
  8
0
  6
Continuous
 62
     7
370
    25
100
AcDbLine
 10
217.8068675162
 20
218.2209877994
 30
0.0
 11
217.8068675162
 21
238.2209877994
 31
0.0
  0
LINE
  5
158
330
1F
100
AcDbEntity
  8
0
  6
Continuous
 62
     7
370
    25
100
AcDbLine
 10
217.8068675162
 20
238.2209877994
 30
0.0
 11
217.7568675162
 21
238.2209877994
 31
0.0
  0
LINE
  5
159
330
1F
100
AcDbEntity
  8
0
  6
Continuous
 62
     7
370
    25
100
AcDbLine
 10
217.8068675162
 20
218.2209877994
 30
0.0
 11
217.6068675162
 21
218.2209877994
 31
0.0
  0
LINE
  5
15A
330
1F
100
AcDbEntity
  8
0
  6
Continuous
 62
     7
370
    25
100
AcDbLine
 10
209.9735341829
 20
239.2209877994
 30
0.0
 11
214.1395249072
 21
239.2209877994
 31
0.0
  0
LINE
  5
15B
330
1F
100
AcDbEntity
  8
0
  6
Continuous
 62
     7
370
    25
100
AcDbLine
 10
209.9735341829
 20
239.2209877994
 30
0.0
 11
209.8068675162
 21
238.2209877994
 31
0.0
  0
LINE
  5
15C
330
1F
100
AcDbEntity
  8
0
  6
Continuous
 62
     7
370
    25
100
AcDbLine
 10
209.8068675172
 20
238.2209877995
 30
0.0
 11
209.4461343517
 21
236.0565888121
 31
0.0
  0
LINE
  5
15D
330
1F
100
AcDbEntity
  8
0
  6
Continuous
 62
     7
370
    25
100
AcDbLine
 10
193.4068675162
 20
138.2209877994
 30
0.0
 11
193.4068675162
 21
158.2209877994
 31
0.0
  0
LINE
  5
15E
330
1F
100
AcDbEntity
  8
0
  6
Continuous
 62
     7
370
    25
100
AcDbLine
 10
196.6068675163
 20
158.2209877994
 30
0.0
 11
197.1068675162
 21
138.2209877994
 31
0.0
  0
LINE
  5
15F
330
1F
100
AcDbEntity
  8
0
  6
Continuous
 62
     7
370
    25
100
AcDbLine
 10
196.6068675162
 20
158.2209877994
 30
0.0
 11
193.4068675162
 21
158.2209877994
 31
0.0
  0
LINE
  5
160
330
1F
100
AcDbEntity
  8
0
  6
Continuous
 62
     7
370
    25
100
AcDbLine
 10
197.1068675162
 20
138.2209877994
 30
0.0
 11
195.6462336779
 21
138.2209877994
 31
0.0
  0
LINE
  5
161
330
1F
100
AcDbEntity
  8
0
  6
Continuous
 62
     7
370
    25
100
AcDbLine
 10
191.8068675162
 20
138.2209877994
 30
0.0
 11
191.8068675162
 21
157.2709877994
 31
0.0
  0
LINE
  5
162
330
1F
100
AcDbEntity
  8
0
  6
Continuous
 62
     7
370
    25
100
AcDbLine
 10
191.8068675162
 20
157.2709877994
 30
0.0
 11
191.8568675162
 21
157.2709877994
 31
0.0
  0
LINE
  5
163
330
1F
100
AcDbEntity
  8
0
  6
Continuous
 62
     7
370
    25
100
AcDbLine
 10
191.8568675162
 20
157.2709877994
 30
0.0
 11
192.8068675162
 21
158.2209877994
 31
0.0
  0
LINE
  5
164
330
1F
100
AcDbEntity
  8
0
  6
Continuous
 62
     7
370
    25
100
AcDbLine
 10
193.3068675162
 20
138.2209877994
 30
0.0
 11
193.3068675162
 21
158.2209877994
 31
0.0
  0
LINE
  5
165
330
1F
100
AcDbEntity
  8
0
  6
Continuous
 62
     7
370
    25
100
AcDbLine
 10
193.3068675162
 20
158.2209877994
 30
0.0
 11
192.8068675162
 21
158.2209877994
 31
0.0
  0
LINE
  5
166
330
1F
100
AcDbEntity
  8
0
  6
Continuous
 62
     7
370
    25
100
AcDbLine
 10
193.3068675162
 20
158.2209877994
 30
0.0
 11
193.4068675162
 21
158.2209877994
 31
0.0
  0
LINE
  5
167
330
1F
100
AcDbEntity
  8
0
  6
Continuous
 62
     7
370
    25
100
AcDbLine
 10
210.3068675162
 20
138.2209877994
 30
0.0
 11
210.8068675162
 21
158.2209877994
 31
0.0
  0
LINE
  5
168
330
1F
100
AcDbEntity
  8
0
  6
Continuous
 62
     7
370
    25
100
AcDbLine
 10
213.6068675162
 20
158.2209877994
 30
0.0
 11
210.8068675162
 21
158.2209877994
 31
0.0
  0
LINE
  5
169
330
1F
100
AcDbEntity
  8
0
  6
Continuous
 62
     7
370
    25
100
AcDbLine
 10
213.6068675162
 20
158.2209877994
 30
0.0
 11
213.6068675162
 21
138.2209877994
 31
0.0
  0
LINE
  5
16A
330
1F
100
AcDbEntity
  8
0
  6
Continuous
 62
     7
370
    25
100
AcDbLine
 10
213.6068675162
 20
138.2209877994
 30
0.0
 11
212.6068675162
 21
138.2209877994
 31
0.0
  0
LINE
  5
16B
330
1F
100
AcDbEntity
  8
0
  6
Continuous
 62
     7
370
    25
100
AcDbLine
 10
200.1676006808
 20
156.0565888121
 30
0.0
 11
199.8068675162
 21
158.2209877994
 31
0.0
  0
SPLINE
  5
16C
330
1F
100
AcDbEntity
  8
0
  6
Continuous
 62
     7
370
    25
100
AcDbSpline
210
0.0
220
0.0
230
1.0
 70
     8
 71
     3
 72
    12
 73
     8
 74
     0
 42
0.00000001
 43
0.00000001
 40
0.0
 40
0.0
 40
0.0
 40
0.0
 40
0.2398757698998941
 40
0.4797503692233388
 40
0.719658824627507
 40
0.9596385202042479
 40
0.9999999999999999
 40
0.9999999999999999
 40
0.9999999999999999
 40
0.9999999999999999
 10
201.1539946046242
 20
155.2209877993773
 30
0.0
 10
201.041582183942
 20
155.2320360523842
 30
0.0
 10
200.816757891142
 20
155.2541325044832
 30
0.0
 10
200.5173626926396
 20
155.426479984528
 30
0.0
 10
200.2903743047987
 20
155.6800411586274
 30
0.0
 10
200.194822609821
 20
155.9095529911005
 30
0.0
 10
200.1710266497412
 20
156.0380838723037
 30
0.0
 10
200.1676006807921
 20
156.0565888120719
 30
0.0
  0
LINE
  5
16D
330
1F
100
AcDbEntity
  8
0
  6
Continuous
 62
     7
370
    25
100
AcDbLine
 10
204.4597404279
 20
155.2209877994
 30
0.0
 11
201.1539946046
 21
155.2209877994
 31
0.0
  0
SPLINE
  5
16E
330
1F
100
AcDbEntity
  8
0
  6
Continuous
 62
     7
370
    25
100
AcDbSpline
210
0.0
220
0.0
230
1.0
 70
     8
 71
     3
 72
    12
 73
     8
 74
     0
 42
0.00000001
 43
0.00000001
 40
0.0
 40
0.0
 40
0.0
 40
0.0
 40
0.240041113497661
 40
0.4800839381032843
 40
0.7200812690352236
 40
0.9600054984537408
 40
1.0
 40
1.0
 40
1.0
 40
1.0
 10
205.4461343516903
 20
156.0565888120719
 30
0.0
 10
205.4167409392069
 20
155.9474801421717
 30
0.0
 10
205.3579539047123
 20
155.7292620246014
 30
0.0
 10
205.1385699577524
 20
155.4621908623144
 30
0.0
 10
204.8509622798502
 20
155.2800125399215
 30
0.0
 10
204.6089273854638
 20
155.2236382447449
 30
0.0
 10
204.4783912912807
 20
155.2213191493516
 30
0.0
 10
204.4597404278582
 20
155.2209877993773
 30
0.0
  0
LINE
  5
16F
330
1F
100
AcDbEntity
  8
0
  6
Continuous
 62
     7
370
    25
100
AcDbLine
 10
205.8068675162
 20
158.2209877994
 30
0.0
 11
205.4461343517
 21
156.0565888121
 31
0.0
  0
LINE
  5
170
330
1F
100
AcDbEntity
  8
0
  6
Continuous
 62
     7
370
    25
100
AcDbLine
 10
205.8068675162
 20
158.2209877994
 30
0.0
 11
210.3068675162
 21
158.2209877994
 31
0.0
  0
LINE
  5
171
330
1F
100
AcDbEntity
  8
0
  6
Continuous
 62
     7
370
    25
100
AcDbLine
 10
210.3068675162
 20
158.2209877994
 30
0.0
 11
210.5068675162
 21
158.2209877994
 31
0.0
  0
LINE
  5
172
330
1F
100
AcDbEntity
  8
0
  6
Continuous
 62
     7
370
    25
100
AcDbLine
 10
210.5068675162
 20
158.2209877994
 30
0.0
 11
210.8068675162
 21
158.2209877994
 31
0.0
  0
LINE
  5
173
330
1F
100
AcDbEntity
  8
0
  6
Continuous
 62
     7
370
    25
100
AcDbLine
 10
198.6068675162
 20
158.2209877994
 30
0.0
 11
199.8068675162
 21
158.2209877994
 31
0.0
  0
LINE
  5
174
330
1F
100
AcDbEntity
  8
0
  6
Continuous
 62
     7
370
    25
100
AcDbLine
 10
198.1068675162
 20
158.2209877994
 30
0.0
 11
198.6068675162
 21
158.2209877994
 31
0.0
  0
LINE
  5
175
330
1F
100
AcDbEntity
  8
0
  6
Continuous
 62
     7
370
    25
100
AcDbLine
 10
204.8068675172
 20
138.2209877994
 30
0.0
 11
198.8068675162
 21
138.2209877994
 31
0.0
  0
LINE
  5
176
330
1F
100
AcDbEntity
  8
0
  6
Continuous
 62
     7
370
    25
100
AcDbLine
 10
213.8068675162
 20
138.2209877994
 30
0.0
 11
213.8068675162
 21
158.2209877994
 31
0.0
  0
LINE
  5
177
330
1F
100
AcDbEntity
  8
0
  6
Continuous
 62
     7
370
    25
100
AcDbLine
 10
213.8068675162
 20
138.2209877994
 30
0.0
 11
213.6068675162
 21
138.2209877994
 31
0.0
  0
LINE
  5
178
330
1F
100
AcDbEntity
  8
0
  6
Continuous
 62
     7
370
    25
100
AcDbLine
 10
205.9735341829
 20
159.2209877994
 30
0.0
 11
210.1402008496
 21
159.2209877994
 31
0.0
  0
LINE
  5
179
330
1F
100
AcDbEntity
  8
0
  6
Continuous
 62
     7
370
    25
100
AcDbLine
 10
210.3068675162
 20
158.2209877994
 30
0.0
 11
210.1402008496
 21
159.2209877994
 31
0.0
  0
LINE
  5
17A
330
1F
100
AcDbEntity
  8
0
  6
Continuous
 62
     7
370
    25
100
AcDbLine
 10
205.9735341829
 20
159.2209877994
 30
0.0
 11
205.8068675162
 21
158.2209877994
 31
0.0
  0
LINE
  5
17B
330
1F
100
AcDbEntity
  8
0
  6
Continuous
 62
     7
370
    25
100
AcDbLine
 10
205.8068675172
 20
158.2209877995
 30
0.0
 11
205.4461343517
 21
156.0565888121
 31
0.0
  0
LINE
  5
17C
330
1F
100
AcDbEntity
  8
0
  6
Continuous
 62
     7
370
    25
100
AcDbLine
 10
192.4068675162
 20
118.2209877994
 30
0.0
 11
192.4068675162
 21
138.2209877994
 31
0.0
  0
LINE
  5
17D
330
1F
100
AcDbEntity
  8
0
  6
Continuous
 62
     7
370
    25
100
AcDbLine
 10
195.6068675163
 20
138.2209877994
 30
0.0
 11
196.1068675162
 21
118.2209877994
 31
0.0
  0
LINE
  5
17E
330
1F
100
AcDbEntity
  8
0
  6
Continuous
 62
     7
370
    25
100
AcDbLine
 10
195.6068675162
 20
138.2209877994
 30
0.0
 11
192.4068675162
 21
138.2209877994
 31
0.0
  0
LINE
  5
17F
330
1F
100
AcDbEntity
  8
0
  6
Continuous
 62
     7
370
    25
100
AcDbLine
 10
196.1068675162
 20
118.2209877994
 30
0.0
 11
192.4068675162
 21
118.2209877994
 31
0.0
  0
LINE
  5
180
330
1F
100
AcDbEntity
  8
0
  6
Continuous
 62
     7
370
    25
100
AcDbLine
 10
192.3068675162
 20
118.2209877994
 30
0.0
 11
192.3068675162
 21
138.2209877994
 31
0.0
  0
LINE
  5
181
330
1F
100
AcDbEntity
  8
0
  6
Continuous
 62
     7
370
    25
100
AcDbLine
 10
192.3068675162
 20
138.2209877994
 30
0.0
 11
192.4068675162
 21
138.2209877994
 31
0.0
  0
LINE
  5
182
330
1F
100
AcDbEntity
  8
0
  6
Continuous
 62
     7
370
    25
100
AcDbLine
 10
192.3068675162
 20
118.2209877994
 30
0.0
 11
192.4068675162
 21
118.2209877994
 31
0.0
  0
LINE
  5
183
330
1F
100
AcDbEntity
  8
0
  6
Continuous
 62
     7
370
    25
100
AcDbLine
 10
190.8068675162
 20
118.2209877994
 30
0.0
 11
190.8068675162
 21
137.2709877994
 31
0.0
  0
LINE
  5
184
330
1F
100
AcDbEntity
  8
0
  6
Continuous
 62
     7
370
    25
100
AcDbLine
 10
190.8068675162
 20
137.2709877994
 30
0.0
 11
190.8568675162
 21
137.2709877994
 31
0.0
  0
LINE
  5
185
330
1F
100
AcDbEntity
  8
0
  6
Continuous
 62
     7
370
    25
100
AcDbLine
 10
190.8568675162
 20
137.2709877994
 30
0.0
 11
191.8068675162
 21
138.2209877994
 31
0.0
  0
LINE
  5
186
330
1F
100
AcDbEntity
  8
0
  6
Continuous
 62
     7
370
    25
100
AcDbLine
 10
192.3068675162
 20
138.2209877994
 30
0.0
 11
191.8068675162
 21
138.2209877994
 31
0.0
  0
LINE
  5
187
330
1F
100
AcDbEntity
  8
0
  6
Continuous
 62
     7
370
    25
100
AcDbLine
 10
192.3068675162
 20
118.2209877994
 30
0.0
 11
190.8068675162
 21
118.2209877994
 31
0.0
  0
LINE
  5
188
330
1F
100
AcDbEntity
  8
0
  6
Continuous
 62
     7
370
    25
100
AcDbLine
 10
209.3068675162
 20
118.2209877994
 30
0.0
 11
209.8068675162
 21
138.2209877994
 31
0.0
  0
LINE
  5
189
330
1F
100
AcDbEntity
  8
0
  6
Continuous
 62
     7
370
    25
100
AcDbLine
 10
212.6068675162
 20
138.2209877994
 30
0.0
 11
209.8068675162
 21
138.2209877994
 31
0.0
  0
LINE
  5
18A
330
1F
100
AcDbEntity
  8
0
  6
Continuous
 62
     7
370
    25
100
AcDbLine
 10
212.6068675162
 20
138.2209877994
 30
0.0
 11
212.6068675162
 21
118.2209877994
 31
0.0
  0
LINE
  5
18B
330
1F
100
AcDbEntity
  8
0
  6
Continuous
 62
     7
370
    25
100
AcDbLine
 10
212.6068675162
 20
118.2209877994
 30
0.0
 11
209.3068675162
 21
118.2209877994
 31
0.0
  0
LINE
  5
18C
330
1F
100
AcDbEntity
  8
0
  6
Continuous
 62
     7
370
    25
100
AcDbLine
 10
199.1676006808
 20
136.0565888121
 30
0.0
 11
198.8068675162
 21
138.2209877994
 31
0.0
  0
SPLINE
  5
18D
330
1F
100
AcDbEntity
  8
0
  6
Continuous
 62
     7
370
    25
100
AcDbSpline
210
0.0
220
0.0
230
1.0
 70
     8
 71
     3
 72
    12
 73
     8
 74
     0
 42
0.00000001
 43
0.00000001
 40
0.0
 40
0.0
 40
0.0
 40
0.0
 40
0.2398757698998941
 40
0.4797503692233388
 40
0.719658824627507
 40
0.9596385202042479
 40
0.9999999999999999
 40
0.9999999999999999
 40
0.9999999999999999
 40
0.9999999999999999
 10
200.1539946046242
 20
135.2209877993773
 30
0.0
 10
200.0415821839419
 20
135.2320360523842
 30
0.0
 10
199.816757891142
 20
135.2541325044832
 30
0.0
 10
199.5173626926395
 20
135.426479984528
 30
0.0
 10
199.2903743047986
 20
135.6800411586274
 30
0.0
 10
199.194822609821
 20
135.9095529911005
 30
0.0
 10
199.1710266497412
 20
136.0380838723038
 30
0.0
 10
199.167600680792
 20
136.0565888120719
 30
0.0
  0
LINE
  5
18E
330
1F
100
AcDbEntity
  8
0
  6
Continuous
 62
     7
370
    25
100
AcDbLine
 10
203.4597404279
 20
135.2209877994
 30
0.0
 11
200.1539946046
 21
135.2209877994
 31
0.0
  0
SPLINE
  5
18F
330
1F
100
AcDbEntity
  8
0
  6
Continuous
 62
     7
370
    25
100
AcDbSpline
210
0.0
220
0.0
230
1.0
 70
     8
 71
     3
 72
    12
 73
     8
 74
     0
 42
0.00000001
 43
0.00000001
 40
0.0
 40
0.0
 40
0.0
 40
0.0
 40
0.240041113497661
 40
0.4800839381032843
 40
0.7200812690352236
 40
0.9600054984537408
 40
1.0
 40
1.0
 40
1.0
 40
1.0
 10
204.4461343516902
 20
136.0565888120719
 30
0.0
 10
204.4167409392068
 20
135.9474801421717
 30
0.0
 10
204.3579539047122
 20
135.7292620246014
 30
0.0
 10
204.1385699577523
 20
135.4621908623145
 30
0.0
 10
203.8509622798502
 20
135.2800125399215
 30
0.0
 10
203.6089273854637
 20
135.2236382447449
 30
0.0
 10
203.4783912912807
 20
135.2213191493515
 30
0.0
 10
203.4597404278581
 20
135.2209877993773
 30
0.0
  0
LINE
  5
190
330
1F
100
AcDbEntity
  8
0
  6
Continuous
 62
     7
370
    25
100
AcDbLine
 10
204.8068675162
 20
138.2209877994
 30
0.0
 11
204.4461343517
 21
136.0565888121
 31
0.0
  0
LINE
  5
191
330
1F
100
AcDbEntity
  8
0
  6
Continuous
 62
     7
370
    25
100
AcDbLine
 10
204.8068675162
 20
138.2209877994
 30
0.0
 11
209.3068675162
 21
138.2209877994
 31
0.0
  0
LINE
  5
192
330
1F
100
AcDbEntity
  8
0
  6
Continuous
 62
     7
370
    25
100
AcDbLine
 10
209.3068675162
 20
138.2209877994
 30
0.0
 11
209.5068675162
 21
138.2209877994
 31
0.0
  0
LINE
  5
193
330
1F
100
AcDbEntity
  8
0
  6
Continuous
 62
     7
370
    25
100
AcDbLine
 10
209.5068675162
 20
138.2209877994
 30
0.0
 11
209.8068675162
 21
138.2209877994
 31
0.0
  0
LINE
  5
194
330
1F
100
AcDbEntity
  8
0
  6
Continuous
 62
     7
370
    25
100
AcDbLine
 10
197.6068675162
 20
138.2209877994
 30
0.0
 11
198.8068675162
 21
138.2209877994
 31
0.0
  0
LINE
  5
195
330
1F
100
AcDbEntity
  8
0
  6
Continuous
 62
     7
370
    25
100
AcDbLine
 10
197.1068675162
 20
138.2209877994
 30
0.0
 11
197.6068675162
 21
138.2209877994
 31
0.0
  0
LINE
  5
196
330
1F
100
AcDbEntity
  8
0
  6
Continuous
 62
     7
370
    25
100
AcDbLine
 10
197.6068675162
 20
118.2209877994
 30
0.0
 11
196.1068675162
 21
118.2209877994
 31
0.0
  0
LINE
  5
197
330
1F
100
AcDbEntity
  8
0
  6
Continuous
 62
     7
370
    25
100
AcDbLine
 10
208.8068675162
 20
118.2209877994
 30
0.0
 11
197.6068675162
 21
118.2209877994
 31
0.0
  0
LINE
  5
198
330
1F
100
AcDbEntity
  8
0
  6
Continuous
 62
     7
370
    25
100
AcDbLine
 10
209.3068675162
 20
118.2209877994
 30
0.0
 11
208.8068675162
 21
118.2209877994
 31
0.0
  0
LINE
  5
199
330
1F
100
AcDbEntity
  8
0
  6
Continuous
 62
     7
370
    25
100
AcDbLine
 10
212.8068675162
 20
118.2209877994
 30
0.0
 11
212.8068675162
 21
138.2209877994
 31
0.0
  0
LINE
  5
19A
330
1F
100
AcDbEntity
  8
0
  6
Continuous
 62
     7
370
    25
100
AcDbLine
 10
212.8068675162
 20
118.2209877994
 30
0.0
 11
212.6068675162
 21
118.2209877994
 31
0.0
  0
LINE
  5
19B
330
1F
100
AcDbEntity
  8
0
  6
Continuous
 62
     7
370
    25
100
AcDbLine
 10
204.9735341829
 20
139.2209877994
 30
0.0
 11
209.1402008496
 21
139.2209877994
 31
0.0
  0
LINE
  5
19C
330
1F
100
AcDbEntity
  8
0
  6
Continuous
 62
     7
370
    25
100
AcDbLine
 10
209.3068675162
 20
138.2209877994
 30
0.0
 11
209.1402008496
 21
139.2209877994
 31
0.0
  0
LINE
  5
19D
330
1F
100
AcDbEntity
  8
0
  6
Continuous
 62
     7
370
    25
100
AcDbLine
 10
204.9735341829
 20
139.2209877994
 30
0.0
 11
204.8068675162
 21
138.2209877994
 31
0.0
  0
LINE
  5
19E
330
1F
100
AcDbEntity
  8
0
  6
Continuous
 62
     7
370
    25
100
AcDbLine
 10
204.8068675172
 20
138.2209877995
 30
0.0
 11
204.4461343517
 21
136.0565888121
 31
0.0
  0
LINE
  5
19F
330
1F
100
AcDbEntity
  8
0
  6
Continuous
 62
     7
370
    25
100
AcDbLine
 10
194.4068675162
 20
158.2209877994
 30
0.0
 11
194.4068675162
 21
178.2209877994
 31
0.0
  0
LINE
  5
1A0
330
1F
100
AcDbEntity
  8
0
  6
Continuous
 62
     7
370
    25
100
AcDbLine
 10
197.6068675163
 20
178.2209877994
 30
0.0
 11
198.1068675162
 21
158.2209877994
 31
0.0
  0
LINE
  5
1A1
330
1F
100
AcDbEntity
  8
0
  6
Continuous
 62
     7
370
    25
100
AcDbLine
 10
197.6068675162
 20
178.2209877994
 30
0.0
 11
194.4068675162
 21
178.2209877994
 31
0.0
  0
LINE
  5
1A2
330
1F
100
AcDbEntity
  8
0
  6
Continuous
 62
     7
370
    25
100
AcDbLine
 10
198.1068675162
 20
158.2209877994
 30
0.0
 11
196.6462336779
 21
158.2209877994
 31
0.0
  0
LINE
  5
1A3
330
1F
100
AcDbEntity
  8
0
  6
Continuous
 62
     7
370
    25
100
AcDbLine
 10
194.3068675162
 20
158.2209877994
 30
0.0
 11
194.3068675162
 21
178.2209877994
 31
0.0
  0
LINE
  5
1A4
330
1F
100
AcDbEntity
  8
0
  6
Continuous
 62
     7
370
    25
100
AcDbLine
 10
194.3068675162
 20
178.2209877994
 30
0.0
 11
194.4068675162
 21
178.2209877994
 31
0.0
  0
LINE
  5
1A5
330
1F
100
AcDbEntity
  8
0
  6
Continuous
 62
     7
370
    25
100
AcDbLine
 10
192.8068675162
 20
158.2209877994
 30
0.0
 11
192.8068675162
 21
177.2709877994
 31
0.0
  0
LINE
  5
1A6
330
1F
100
AcDbEntity
  8
0
  6
Continuous
 62
     7
370
    25
100
AcDbLine
 10
192.8068675162
 20
177.2709877994
 30
0.0
 11
192.8568675162
 21
177.2709877994
 31
0.0
  0
LINE
  5
1A7
330
1F
100
AcDbEntity
  8
0
  6
Continuous
 62
     7
370
    25
100
AcDbLine
 10
192.8568675162
 20
177.2709877994
 30
0.0
 11
193.8068675162
 21
178.2209877994
 31
0.0
  0
LINE
  5
1A8
330
1F
100
AcDbEntity
  8
0
  6
Continuous
 62
     7
370
    25
100
AcDbLine
 10
194.3068675162
 20
178.2209877994
 30
0.0
 11
193.8068675162
 21
178.2209877994
 31
0.0
  0
LINE
  5
1A9
330
1F
100
AcDbEntity
  8
0
  6
Continuous
 62
     7
370
    25
100
AcDbLine
 10
211.3068675162
 20
158.2209877994
 30
0.0
 11
211.8068675162
 21
178.2209877994
 31
0.0
  0
LINE
  5
1AA
330
1F
100
AcDbEntity
  8
0
  6
Continuous
 62
     7
370
    25
100
AcDbLine
 10
214.6068675162
 20
178.2209877994
 30
0.0
 11
211.8068675162
 21
178.2209877994
 31
0.0
  0
LINE
  5
1AB
330
1F
100
AcDbEntity
  8
0
  6
Continuous
 62
     7
370
    25
100
AcDbLine
 10
214.6068675162
 20
178.2209877994
 30
0.0
 11
214.6068675162
 21
158.2209877994
 31
0.0
  0
LINE
  5
1AC
330
1F
100
AcDbEntity
  8
0
  6
Continuous
 62
     7
370
    25
100
AcDbLine
 10
214.6068675162
 20
158.2209877994
 30
0.0
 11
213.6068675162
 21
158.2209877994
 31
0.0
  0
LINE
  5
1AD
330
1F
100
AcDbEntity
  8
0
  6
Continuous
 62
     7
370
    25
100
AcDbLine
 10
201.1676006808
 20
176.0565888121
 30
0.0
 11
200.8068675162
 21
178.2209877994
 31
0.0
  0
SPLINE
  5
1AE
330
1F
100
AcDbEntity
  8
0
  6
Continuous
 62
     7
370
    25
100
AcDbSpline
210
0.0
220
0.0
230
1.0
 70
     8
 71
     3
 72
    12
 73
     8
 74
     0
 42
0.00000001
 43
0.00000001
 40
0.0
 40
0.0
 40
0.0
 40
0.0
 40
0.2398757698998941
 40
0.4797503692233388
 40
0.719658824627507
 40
0.9596385202042479
 40
0.9999999999999999
 40
0.9999999999999999
 40
0.9999999999999999
 40
0.9999999999999999
 10
202.1539946046242
 20
175.2209877993773
 30
0.0
 10
202.041582183942
 20
175.2320360523842
 30
0.0
 10
201.8167578911421
 20
175.2541325044832
 30
0.0
 10
201.5173626926396
 20
175.426479984528
 30
0.0
 10
201.2903743047987
 20
175.6800411586274
 30
0.0
 10
201.194822609821
 20
175.9095529911005
 30
0.0
 10
201.1710266497412
 20
176.0380838723037
 30
0.0
 10
201.1676006807921
 20
176.0565888120719
 30
0.0
  0
LINE
  5
1AF
330
1F
100
AcDbEntity
  8
0
  6
Continuous
 62
     7
370
    25
100
AcDbLine
 10
205.4597404279
 20
175.2209877994
 30
0.0
 11
202.1539946046
 21
175.2209877994
 31
0.0
  0
SPLINE
  5
1B0
330
1F
100
AcDbEntity
  8
0
  6
Continuous
 62
     7
370
    25
100
AcDbSpline
210
0.0
220
0.0
230
1.0
 70
     8
 71
     3
 72
    12
 73
     8
 74
     0
 42
0.00000001
 43
0.00000001
 40
0.0
 40
0.0
 40
0.0
 40
0.0
 40
0.240041113497661
 40
0.4800839381032843
 40
0.7200812690352236
 40
0.9600054984537408
 40
1.0
 40
1.0
 40
1.0
 40
1.0
 10
206.4461343516903
 20
176.0565888120719
 30
0.0
 10
206.4167409392069
 20
175.9474801421717
 30
0.0
 10
206.3579539047123
 20
175.7292620246014
 30
0.0
 10
206.1385699577524
 20
175.4621908623144
 30
0.0
 10
205.8509622798502
 20
175.2800125399215
 30
0.0
 10
205.6089273854638
 20
175.2236382447449
 30
0.0
 10
205.4783912912807
 20
175.2213191493515
 30
0.0
 10
205.4597404278582
 20
175.2209877993773
 30
0.0
  0
LINE
  5
1B1
330
1F
100
AcDbEntity
  8
0
  6
Continuous
 62
     7
370
    25
100
AcDbLine
 10
206.8068675162
 20
178.2209877994
 30
0.0
 11
206.4461343517
 21
176.0565888121
 31
0.0
  0
LINE
  5
1B2
330
1F
100
AcDbEntity
  8
0
  6
Continuous
 62
     7
370
    25
100
AcDbLine
 10
206.8068675162
 20
178.2209877994
 30
0.0
 11
211.3068675162
 21
178.2209877994
 31
0.0
  0
LINE
  5
1B3
330
1F
100
AcDbEntity
  8
0
  6
Continuous
 62
     7
370
    25
100
AcDbLine
 10
211.3068675162
 20
178.2209877994
 30
0.0
 11
211.5068675162
 21
178.2209877994
 31
0.0
  0
LINE
  5
1B4
330
1F
100
AcDbEntity
  8
0
  6
Continuous
 62
     7
370
    25
100
AcDbLine
 10
211.5068675162
 20
178.2209877994
 30
0.0
 11
211.8068675162
 21
178.2209877994
 31
0.0
  0
LINE
  5
1B5
330
1F
100
AcDbEntity
  8
0
  6
Continuous
 62
     7
370
    25
100
AcDbLine
 10
199.6068675162
 20
178.2209877994
 30
0.0
 11
200.8068675162
 21
178.2209877994
 31
0.0
  0
LINE
  5
1B6
330
1F
100
AcDbEntity
  8
0
  6
Continuous
 62
     7
370
    25
100
AcDbLine
 10
199.1068675162
 20
178.2209877994
 30
0.0
 11
199.6068675162
 21
178.2209877994
 31
0.0
  0
LINE
  5
1B7
330
1F
100
AcDbEntity
  8
0
  6
Continuous
 62
     7
370
    25
100
AcDbLine
 10
205.8068675162
 20
158.2209877994
 30
0.0
 11
199.8068675163
 21
158.2209877994
 31
0.0
  0
LINE
  5
1B8
330
1F
100
AcDbEntity
  8
0
  6
Continuous
 62
     7
370
    25
100
AcDbLine
 10
214.8068675162
 20
158.2209877994
 30
0.0
 11
214.8068675162
 21
178.2209877994
 31
0.0
  0
LINE
  5
1B9
330
1F
100
AcDbEntity
  8
0
  6
Continuous
 62
     7
370
    25
100
AcDbLine
 10
214.8068675162
 20
158.2209877994
 30
0.0
 11
214.6068675162
 21
158.2209877994
 31
0.0
  0
LINE
  5
1BA
330
1F
100
AcDbEntity
  8
0
  6
Continuous
 62
     7
370
    25
100
AcDbLine
 10
206.9735341829
 20
179.2209877994
 30
0.0
 11
211.1402008496
 21
179.2209877994
 31
0.0
  0
LINE
  5
1BB
330
1F
100
AcDbEntity
  8
0
  6
Continuous
 62
     7
370
    25
100
AcDbLine
 10
211.3068675162
 20
178.2209877994
 30
0.0
 11
211.1402008496
 21
179.2209877994
 31
0.0
  0
LINE
  5
1BC
330
1F
100
AcDbEntity
  8
0
  6
Continuous
 62
     7
370
    25
100
AcDbLine
 10
206.9735341829
 20
179.2209877994
 30
0.0
 11
206.8068675162
 21
178.2209877994
 31
0.0
  0
LINE
  5
1BD
330
1F
100
AcDbEntity
  8
0
  6
Continuous
 62
     7
370
    25
100
AcDbLine
 10
206.8068675172
 20
178.2209877995
 30
0.0
 11
206.4461343517
 21
176.0565888121
 31
0.0
  0
LINE
  5
1BE
330
1F
100
AcDbEntity
  8
FORMAT
100
AcDbLine
 10
218.138154539
 20
241.7430289693
 30
0.0
 11
218.138154539
 21
223.0046120876
 31
0.0
  0
LINE
  5
1BF
330
1F
100
AcDbEntity
  8
FORMAT
100
AcDbLine
 10
249.7452202825
 20
115.654904959
 30
0.0
 11
190.6931424206
 21
115.654904959
 31
0.0
  0
LINE
  5
1C0
330
1F
100
AcDbEntity
  8
FORMAT
100
AcDbLine
 10
182.7404224525
 20
115.654904959
 30
0.0
 11
182.7404224525
 21
95.654904959
 31
0.0
  0
LINE
  5
1C1
330
1F
100
AcDbEntity
  8
FORMAT
100
AcDbLine
 10
182.7404224525
 20
95.654904959
 30
0.0
 11
249.7452202825
 21
95.654904959
 31
0.0
  0
LINE
  5
1C2
330
1F
100
AcDbEntity
  8
FORMAT
100
AcDbLine
 10
249.7452202825
 20
115.654904959
 30
0.0
 11
249.7452202825
 21
95.654904959
 31
0.0
  0
LINE
  5
1C3
330
1F
100
AcDbEntity
  8
FORMAT
100
AcDbLine
 10
190.6931424206
 20
115.654904959
 30
0.0
 11
190.6931424206
 21
126.2869415552
 31
0.0
  0
LINE
  5
1C4
330
1F
100
AcDbEntity
  8
FORMAT
100
AcDbLine
 10
190.9153081486
 20
117.8764303455
 30
0.0
 11
212.5307791314
 21
117.8764303455
 31
0.0
  0
LINE
  5
1C5
330
1F
100
AcDbEntity
  8
FORMAT
100
AcDbLine
 10
190.9153081486
 20
117.8764303455
 30
0.0
 11
190.9153081486
 21
115.8764303455
 31
0.0
  0
LINE
  5
1C6
330
1F
100
AcDbEntity
  8
FORMAT
100
AcDbLine
 10
190.9153081486
 20
115.8764303455
 30
0.0
 11
212.5307791314
 21
115.8764303455
 31
0.0
  0
LINE
  5
1C7
330
1F
100
AcDbEntity
  8
FORMAT
100
AcDbLine
 10
212.5307791314
 20
117.8764303455
 30
0.0
 11
212.5307791314
 21
115.8764303455
 31
0.0
  0
LINE
  5
1C8
330
1F
100
AcDbEntity
  8
FORMAT
100
AcDbLine
 10
217.8068675162
 20
222.6669233062
 30
0.0
 11
258.4456298411
 21
222.6669233062
 31
0.0
  0
LINE
  5
1C9
330
1F
100
AcDbEntity
  8
FORMAT
100
AcDbLine
 10
217.8068675162
 20
222.6669233062
 30
0.0
 11
212.8912637374
 21
115.8607759878
 31
0.0
  0
LINE
  5
1CA
330
1F
100
AcDbEntity
  8
FORMAT
100
AcDbLine
 10
212.8912637374
 20
115.8607759878
 30
0.0
 11
249.6731357234
 21
115.8607759878
 31
0.0
  0
LINE
  5
1CB
330
1F
100
AcDbEntity
  8
FORMAT
100
AcDbLine
 10
258.4456298411
 20
222.6669233062
 30
0.0
 11
249.6731357234
 21
115.8607759878
 31
0.0
  0
LINE
  5
1CC
330
1F
100
AcDbEntity
  8
FORMAT
100
AcDbLine
 10
218.138154539
 20
223.0046120876
 30
0.0
 11
258.4567322728
 21
223.0046120876
 31
0.0
  0
LINE
  5
1CD
330
1F
100
AcDbEntity
  8
FORMAT
100
AcDbLine
 10
273.0494017606
 20
231.4142596555
 30
0.0
 11
365.8969484454
 21
254.6261463267
 31
0.0
  0
LINE
  5
1CE
330
1F
100
AcDbEntity
  8
FORMAT
100
AcDbLine
 10
173.4799258729
 20
126.2869415552
 30
0.0
 11
107.5868473077
 21
126.2869415552
 31
0.0
  0
LINE
  5
1CF
330
1F
100
AcDbEntity
  8
FORMAT
100
AcDbLine
 10
218.138154539
 20
241.7430289693
 30
0.0
 11
226.6153867006
 21
241.7430289693
 31
0.0
  0
LINE
  5
1D0
330
1F
100
AcDbEntity
  8
FORMAT
100
AcDbLine
 10
241.2933590056
 20
242.3380282504
 30
0.0
 11
364.084372489
 21
273.0357816212
 31
0.0
  0
LINE
  5
1D1
330
1F
100
AcDbEntity
  8
FORMAT
100
AcDbLine
 10
364.084372489
 20
273.0357816212
 30
0.0
 11
365.8969484454
 21
254.6261463267
 31
0.0
  0
LINE
  5
1D2
330
1F
100
AcDbEntity
  8
FORMAT
100
AcDbLine
 10
190.6931424206
 20
126.2869415552
 30
0.0
 11
173.4799258729
 21
126.2869415552
 31
0.0
  0
LINE
  5
1D3
330
1F
100
AcDbEntity
  8
FORMAT
100
AcDbLine
 10
173.4799258729
 20
126.2869415552
 30
0.0
 11
182.7404224525
 21
115.654904959
 31
0.0
  0
LINE
  5
1D4
330
1F
100
AcDbEntity
  8
FORMAT
100
AcDbLine
 10
262.925217109
 20
275.214324495
 30
0.0
 11
262.925217109
 21
265.214324495
 31
0.0
  0
LINE
  5
1D5
330
1F
100
AcDbEntity
  8
FORMAT
100
AcDbLine
 10
262.925217109
 20
265.214324495
 30
0.0
 11
302.925217109
 21
275.214324495
 31
0.0
  0
LINE
  5
1D6
330
1F
100
AcDbEntity
  8
FORMAT
100
AcDbLine
 10
302.925217109
 20
275.214324495
 30
0.0
 11
262.925217109
 21
275.214324495
 31
0.0
  0
CIRCLE
  5
1D7
330
1F
100
AcDbEntity
  8
FORMAT
100
AcDbCircle
 10
220.5247432358
 20
121.8429514894
 30
0.0
 40
5.000000000000011
  0
SPLINE
  5
1D8
330
1F
100
AcDbEntity
  8
FORMAT
100
AcDbSpline
210
0.0
220
0.0
230
1.0
 70
     8
 71
     3
 72
     8
 73
     4
 74
     0
 42
0.00000001
 43
0.00000001
 40
0.0
 40
0.0
 40
0.0
 40
0.0
 40
1.0
 40
1.0
 40
1.0
 40
1.0
 10
258.4567322727698
 20
223.0046120876132
 30
0.0
 10
259.6529673113009
 20
228.5170933195626
 30
0.0
 10
266.5875850903534
 20
230.3562730466947
 30
0.0
 10
273.0494017605662
 20
231.4142596554715
 30
0.0
  0
SPLINE
  5
1D9
330
1F
100
AcDbEntity
  8
FORMAT
100
AcDbSpline
210
0.0
220
0.0
230
1.0
 70
     8
 71
     2
 72
     6
 73
     3
 74
     0
 42
0.00000001
 43
0.00000001
 40
0.0
 40
0.0
 40
0.0
 40
1.0
 40
1.0
 40
1.0
 10
226.6153867006223
 20
241.7430289692756
 30
0.0
 10
234.2598420860674
 20
236.1110296428277
 30
0.0
 10
241.293359005637
 20
242.3380282503586
 30
0.0
  0
INSERT
  5
208
330
1F
100
AcDbEntity
  8
0
  6
Continuous
 62
     7
370
    18
100
AcDbBlockReference
  2
SW_HATCH_0
 10
364.6889261481
 20
266.8955631433
 30
0.0
  0
HATCH
  5
209
330
1F
100
AcDbEntity
  8
FORMAT
100
AcDbHatch
 10
0.0
 20
0.0
 30
0.0
210
0.0
220
0.0
230
1.0
  2
AR-SAND
 70
     0
 71
     0
 91
        1
 92
        0
 93
        4
 72
     1
 10
212.5307791313899
 20
115.8764303454622
 11
212.5307791313899
 21
117.8764303454622
 72
     1
 10
212.5307791313899
 20
117.8764303454622
 11
190.5307791313901
 21
117.8764303454622
 72
     1
 10
190.5307791313901
 20
117.8764303454622
 11
190.5307791313901
 21
115.8764303454622
 72
     1
 10
190.5307791313901
 20
115.8764303454622
 11
212.5307791313899
 21
115.8764303454622
 97
        0
 75
     0
 76
     1
 52
0.0
 41
20.0
 77
     0
 78
     4
 53
37.5
 43
0.0
 44
0.0
 45
-32.00062591968091
 46
978.8264746586847
 79
     6
 49
0.0
 49
-772.16
 49
0.0
 49
-863.6
 49
0.0
 49
-825.5
 53
7.5
 43
0.0
 44
0.0
 45
899.0465662760053
 46
1433.650201136709
 79
     6
 49
0.0
 49
-416.56
 49
0.0
 49
-695.96
 49
0.0
 49
-266.7
 53
-32.5
 43
-624.84
 44
0.0
 45
1581.984740482916
 46
2.874369357091524
 79
     6
 49
0.0
 49
-254.0
 49
0.0
 49
-914.4
 49
0.0
 49
-1193.8
 53
-42.50000000000001
 43
-624.84
 44
0.0
 45
1527.112904944595
 46
445.8586465144326
 79
     6
 49
0.0
 49
-127.0
 49
0.0
 49
-599.44
 49
0.0
 49
-685.8
 98
        1
 10
0.0
 20
0.0
  0
INSERT
  5
3AE
330
1F
100
AcDbEntity
  8
0
  6
Continuous
 62
     7
370
    18
100
AcDbBlockReference
  2
SW_HATCH_1
 10
223.4079686756
 20
221.8649434039
 30
0.0
  0
INSERT
  5
403
330
1F
100
AcDbEntity
  8
0
  6
Continuous
 62
     7
370
    18
100
AcDbBlockReference
  2
SW_HATCH_2
 10
108.2395991677
 20
120.8993192791
 30
0.0
  0
HATCH
  5
404
330
1F
100
AcDbEntity
  8
FORMAT
100
AcDbHatch
 10
0.0
 20
0.0
 30
0.0
210
0.0
220
0.0
230
1.0
  2
AR-CONC
 70
     0
 71
     0
 91
        1
 92
        0
 93
        7
 72
     1
 10
190.3088320249281
 20
126.2869415551512
 11
173.4799258729398
 21
126.2869415551512
 72
     1
 10
173.4799258729398
 20
126.2869415551512
 11
182.7404224525401
 21
115.6549049590218
 72
     1
 10
182.7404224525401
 20
115.6549049590218
 11
182.7404224525401
 21
95.65490495902185
 72
     1
 10
182.7404224525401
 20
95.65490495902185
 11
249.7452202824508
 21
95.65490495902185
 72
     1
 10
249.7452202824508
 20
95.65490495902185
 11
249.7452202824508
 21
115.6549049590217
 72
     1
 10
249.7452202824508
 20
115.6549049590217
 11
190.3088320249281
 21
115.6549049590216
 72
     1
 10
190.3088320249281
 20
115.6549049590216
 11
190.3088320249281
 21
126.2869415551512
 97
        0
 75
     0
 76
     1
 52
0.0
 41
5.0
 77
     0
 78
    13
 53
50.0
 43
0.0
 44
0.0
 45
910.9233449800197
 46
-79.69542769451536
 79
     2
 49
95.25
 49
-1047.75
 53
355.0
 43
0.0
 44
0.0
 45
-176.2171071248467
 46
955.2842261951757
 79
     2
 49
76.2
 49
-838.20292085
 53
100.4514447
 43
75.91003500000001
 44
-6.6412675
 45
734.7062354517669
 46
875.5887595609754
 79
     2
 49
80.950044
 49
-890.451223
 53
46.1842
 43
0.0
 44
254.0
 45
1355.39520446065
 46
-210.2116396636357
 79
     2
 49
142.875
 49
-1571.625
 53
96.63555760999999
 43
112.9495
 44
236.4825
 45
1187.020670257515
 46
1237.130622988608
 79
     2
 49
121.4251157
 49
-1335.6780408
 53
351.18415117
 43
0.0
 44
254.0
 45
1187.020670324887
 46
1237.130622927662
 79
     2
 49
114.29983535
 49
-1257.2986596
 53
21.0
 43
127.0
 44
190.5
 45
758.0719563456624
 46
-511.325990935438
 79
     2
 49
95.25
 49
-1047.75
 53
325.9999999999999
 43
127.0
 44
190.5
 45
309.0101417382363
 46
920.9398306115961
 79
     2
 49
76.2
 49
-838.1999999999999
 53
71.45144499999999
 43
190.172663
 44
147.8895005
 45
1067.082096393581
 46
409.6138444295264
 79
     2
 49
80.950044
 49
-890.449688
 53
37.5
 43
0.0
 44
0.0
 45
15.44301625295908
 46
422.7751943657655
 79
     6
 49
0.0
 49
-828.04
 49
0.0
 49
-850.9000000000001
 49
0.0
 49
-841.375
 53
7.5
 43
0.0
 44
0.0
 45
334.0983125515287
 46
500.9028740905975
 79
     6
 49
0.0
 49
-485.14
 49
0.0
 49
-808.99
 49
0.0
 49
-320.675
 53
-32.5
 43
-283.21
 44
0.0
 45
677.952975834357
 46
-28.64371996336722
 79
     6
 49
0.0
 49
-317.5
 49
0.0
 49
-990.6
 49
0.0
 49
-1314.45
 53
-42.50000000000001
 43
-410.21
 44
0.0
 45
740.6459069300902
 46
127.1324551666652
 79
     6
 49
0.0
 49
-412.75
 49
0.0
 49
-657.86
 49
0.0
 49
-933.45
 98
        1
 10
0.0
 20
0.0
  0
INSERT
  5
599
330
1F
100
AcDbEntity
  8
0
  6
Continuous
 62
     7
370
    18
100
AcDbBlockReference
  2
SW_HATCH_3
 10
267.2936603637
 20
226.0718437487
 30
0.0
  0
INSERT
  5
5A4
330
1F
100
AcDbEntity
  8
0
  6
Continuous
 62
     7
370
    18
100
AcDbBlockReference
  2
SW_HATCH_4
 10
201.4373862236
 20
217.2470697895
 30
0.0
  0
INSERT
  5
5B3
330
1F
100
AcDbEntity
  8
0
  6
Continuous
 62
     7
370
    18
100
AcDbBlockReference
  2
SW_HATCH_5
 10
200.088211696
 20
193.1046594273
 30
0.0
  0
INSERT
  5
5D3
330
1F
100
AcDbEntity
  8
0
  6
Continuous
 62
     7
370
    18
100
AcDbBlockReference
  2
SW_HATCH_6
 10
197.6790429221
 20
175.3339715662
 30
0.0
  0
INSERT
  5
5DA
330
1F
100
AcDbEntity
  8
0
  6
Continuous
 62
     7
370
    18
100
AcDbBlockReference
  2
SW_HATCH_7
 10
197.1156448467
 20
154.8563248711
 30
0.0
  0
INSERT
  5
5E2
330
1F
100
AcDbEntity
  8
0
  6
Continuous
 62
     7
370
    18
100
AcDbBlockReference
  2
SW_HATCH_8
 10
197.664080435
 20
134.783352535
 30
0.0
  0
INSERT
  5
5E8
330
1F
100
AcDbEntity
  8
FORMAT
100
AcDbBlockReference
  2
SW_NOTE_0
 10
262.6919905772
 20
83.8801530673
 30
0.0
  0
LEADER
  5
5EA
330
1F
100
AcDbEntity
  8
FORMAT
100
AcDbLeader
  3
SLDDIMSTYLE0
 76
     2
 10
232.5393688198
 20
100.3577607226
 30
0.0
 10
262.6919905772
 20
83.8801530673
 30
0.0
  0
INSERT
  5
5EF
102
{ACAD_REACTORS
330
5F0
102
}
330
1F
100
AcDbEntity
  8
FORMAT
100
AcDbBlockReference
  2
SW_NOTE_0_1
 10
107.0124383093
 20
104.0214958235
 30
0.0
  0
LEADER
  5
5F0
330
1F
100
AcDbEntity
  8
FORMAT
100
AcDbLeader
  3
SLDDIMSTYLE0
 73
     2
 76
     2
 10
190.9153081486
 20
115.8764303455
 30
0.0
 10
107.0124383093
 20
104.0214958235
 30
0.0
340
5EF
  0
INSERT
  5
5F5
330
1F
100
AcDbEntity
  8
FORMAT
100
AcDbBlockReference
  2
SW_NOTE_0_2
 10
151.5923038716
 20
151.7246760355
 30
0.0
  0
LEADER
  5
5F6
330
1F
100
AcDbEntity
  8
FORMAT
100
AcDbLeader
  3
SLDDIMSTYLE0
 76
     2
 10
185.8600249245
 20
126.2869415552
 30
0.0
 10
151.5923038716
 20
151.7246760355
 30
0.0
  0
INSERT
  5
5FC
102
{ACAD_REACTORS
330
5FD
102
}
330
1F
100
AcDbEntity
  8
FORMAT
100
AcDbBlockReference
  2
SW_NOTE_0_3
 10
117.7104250942
 20
185.1259544143
 30
0.0
  0
LEADER
  5
5FD
330
1F
100
AcDbEntity
  8
FORMAT
100
AcDbLeader
  3
SLDDIMSTYLE0
 73
     2
 76
     2
 10
195.4068675162
 20
187.7459396048
 30
0.0
 10
117.7104250942
 20
185.1259544143
 30
0.0
340
5FC
  0
INSERT
  5
605
102
{ACAD_REACTORS
330
606
102
}
330
1F
100
AcDbEntity
  8
FORMAT
100
AcDbBlockReference
  2
SW_NOTE_0_4
 10
139.5545988673
 20
231.9934312176
 30
0.0
  0
LEADER
  5
606
330
1F
100
AcDbEntity
  8
FORMAT
100
AcDbLeader
  3
SLDDIMSTYLE0
 73
     2
 76
     2
 10
195.5568675162
 20
241.2701622912
 30
0.0
 10
139.5545988673
 20
231.9934312176
 30
0.0
340
605
  0
INSERT
  5
60E
330
1F
100
AcDbEntity
  8
FORMAT
100
AcDbBlockReference
  2
SW_NOTE_0_5
 10
206.3950110708
 20
264.9232222222
 30
0.0
  0
LEADER
  5
60F
330
1F
100
AcDbEntity
  8
FORMAT
100
AcDbLeader
  3
SLDDIMSTYLE0
 76
     2
 10
234.3084829318
 20
242.0846368983
 30
0.0
 10
206.3950110708
 20
264.9232222222
 30
0.0
  0
INSERT
  5
619
330
1F
100
AcDbEntity
  8
FORMAT
100
AcDbBlockReference
  2
SW_NOTE_0_6
 10
302.2679623086
 20
116.7945997255
 30
0.0
  0
LEADER
  5
61A
330
1F
100
AcDbEntity
  8
FORMAT
100
AcDbLeader
  3
SLDDIMSTYLE0
 76
     2
 10
220.5247432358
 20
121.8429514894
 30
0.0
 10
302.2679623086
 20
116.7945997255
 30
0.0
  0
INSERT
  5
620
330
1F
100
AcDbEntity
  8
FORMAT
100
AcDbBlockReference
  2
SW_NOTE_0_7
 10
282.1266195524
 20
167.3246350612
 30
0.0
  0
LEADER
  5
621
330
1F
100
AcDbEntity
  8
FORMAT
100
AcDbLeader
  3
SLDDIMSTYLE0
 76
     2
 10
238.8998495819
 20
173.7389521889
 30
0.0
 10
282.1266195524
 20
167.3246350612
 30
0.0
  0
INSERT
  5
627
330
1F
100
AcDbEntity
  8
FORMAT
100
AcDbBlockReference
  2
SW_NOTE_0_8
 10
289.1937573616
 20
198.6556126819
 30
0.0
  0
LEADER
  5
628
330
1F
100
AcDbEntity
  8
FORMAT
100
AcDbLeader
  3
SLDDIMSTYLE0
 76
     2
 10
248.3617213908
 20
233.1652101187
 30
0.0
 10
289.1937573616
 20
198.6556126819
 30
0.0
  0
MTEXT
  5
629
330
1F
100
AcDbEntity
  8
FORMAT
100
AcDbMText
 10
321.979570683
 20
221.0055113413
 30
0.0
 40
3.5
 41
0.0
 71
     1
 72
     1
  1
Retained Soil
  7
SLDTEXTSTYLE0
 73
     1
 44
1.0
  0
MTEXT
  5
62A
330
1F
100
AcDbEntity
  8
FORMAT
100
AcDbMText
 10
264.7183377237
 20
281.2616039024
 30
0.0
 40
3.5
 41
0.0
 71
     1
 72
     1
  1
Slope
  7
SLDTEXTSTYLE0
 73
     1
 44
1.0
  0
MTEXT
  5
62B
330
1F
100
AcDbEntity
  8
FORMAT
100
AcDbMText
 10
257.7395740132
 20
272.0537784385
 30
0.0
 40
3.5
 41
0.0
 71
     1
 72
     1
  1
1
  7
SLDTEXTSTYLE0
 73
     1
 44
1.0
  0
MTEXT
  5
62C
330
1F
100
AcDbEntity
  8
FORMAT
100
AcDbMText
 10
283.5498568613
 20
281.3997177057
 30
0.0
 40
3.5
 41
0.0
 71
     1
 72
     1
  1
4
  7
SLDTEXTSTYLE0
 73
     1
 44
1.0
  0
ENDSEC
  0
SECTION
  2
OBJECTS
  0
DICTIONARY
  5
C
330
0
100
AcDbDictionary
281
     1
  3
ACAD_GROUP
350
D
  3
ACAD_LAYOUT
350
1A
  3
ACAD_MLINESTYLE
350
17
  3
ACAD_PLOTSETTINGS
350
19
  3
ACAD_PLOTSTYLENAME
350
E
  3
ACAD_SCALELIST
350
47
  3
DWGPROPS
350
62D
  0
DICTIONARY
  5
D
102
{ACAD_REACTORS
330
C
102
}
330
C
100
AcDbDictionary
281
     1
  0
DICTIONARY
  5
1A
102
{ACAD_REACTORS
330
C
102
}
330
C
100
AcDbDictionary
281
     1
  3
Layout1
350
1E
  3
Layout2
350
26
  3
Model
350
22
  0
DICTIONARY
  5
17
102
{ACAD_REACTORS
330
C
102
}
330
C
100
AcDbDictionary
281
     1
  3
Standard
350
18
  0
DICTIONARY
  5
19
102
{ACAD_REACTORS
330
C
102
}
330
C
100
AcDbDictionary
281
     1
  0
ACDBDICTIONARYWDFLT
  5
E
102
{ACAD_REACTORS
330
C
102
}
330
C
100
AcDbDictionary
281
     1
  3
Normal
350
F
100
AcDbDictionaryWithDefault
340
F
  0
DICTIONARY
  5
47
102
{ACAD_REACTORS
330
C
102
}
330
C
100
AcDbDictionary
281
     1
  3
A0
350
48
  3
A1
350
49
  3
A2
350
4A
  3
A3
350
4B
  3
A4
350
4C
  3
A5
350
4D
  3
A6
350
4E
  3
A7
350
4F
  3
A8
350
50
  3
A9
350
51
  3
B0
350
52
  3
B1
350
53
  3
B2
350
54
  3
B3
350
55
  3
B4
350
56
  3
B5
350
57
  3
B6
350
58
  0
XRECORD
  5
62D
102
{ACAD_REACTORS
330
C
102
}
330
C
100
AcDbXrecord
280
     1
  1
DWGPROPS COOKIE
  2

  3

  4

  6

  7

  8
JBassett
  9

300
=
301
=
302
=
303
=
304
=
305
=
306
=
307
=
308
=
309
=
 40
0.0
 41
2460166.978764757
 42
2460166.978767315
  1

 90
        0
  0
LAYOUT
  5
1E
102
{ACAD_REACTORS
330
1A
102
}
330
1A
100
AcDbPlotSettings
  1

  2
none_device
  4

  6

 40
0.0
 41
0.0
 42
0.0
 43
0.0
 44
0.0
 45
0.0
 46
0.0
 47
0.0
 48
0.0
 49
0.0
140
0.0
141
0.0
142
1.0
143
1.0
 70
   688
 72
     1
 73
     0
 74
     5
  7

 75
    16
147
1.0
148
0.0
149
0.0
100
AcDbLayout
  1
Layout1
 70
     1
 71
     1
 10
0.0
 20
0.0
 11
420.0
 21
297.0
 12
0.0
 22
0.0
 32
0.0
 14
1.0000000000E+20
 24
1.0000000000E+20
 34
1.0000000000E+20
 15
-1.0000000000E+20
 25
-1.0000000000E+20
 35
-1.0000000000E+20
146
0.0
 13
0.0
 23
0.0
 33
0.0
 16
1.0
 26
0.0
 36
0.0
 17
0.0
 27
1.0
 37
0.0
 76
     0
330
1B
  0
LAYOUT
  5
26
102
{ACAD_REACTORS
330
1A
102
}
330
1A
100
AcDbPlotSettings
  1

  2
none_device
  4

  6

 40
0.0
 41
0.0
 42
0.0
 43
0.0
 44
0.0
 45
0.0
 46
0.0
 47
0.0
 48
0.0
 49
0.0
140
0.0
141
0.0
142
1.0
143
1.0
 70
   688
 72
     1
 73
     0
 74
     5
  7

 75
    16
147
1.0
148
0.0
149
0.0
100
AcDbLayout
  1
Layout2
 70
     1
 71
     2
 10
0.0
 20
0.0
 11
0.0
 21
0.0
 12
0.0
 22
0.0
 32
0.0
 14
0.0
 24
0.0
 34
0.0
 15
0.0
 25
0.0
 35
0.0
146
0.0
 13
0.0
 23
0.0
 33
0.0
 16
1.0
 26
0.0
 36
0.0
 17
0.0
 27
1.0
 37
0.0
 76
     0
330
23
  0
LAYOUT
  5
22
102
{ACAD_REACTORS
330
1A
102
}
330
1A
100
AcDbPlotSettings
  1

  2
none_device
  4
Letter_(8.50_x_11.00_Inches)
  6

 40
6.35
 41
6.35
 42
6.35000508
 43
6.35000508
 44
215.9
 45
279.4
 46
0.0
 47
0.0
 48
0.0
 49
0.0
140
0.0
141
0.0
142
1.0
143
1.0
 70
  1712
 72
     1
 73
     0
 74
     0
  7

 75
     0
147
1.0
148
0.0
149
0.0
100
AcDbLayout
  1
Model
 70
     1
 71
     0
 10
0.0
 20
0.0
 11
420.0
 21
297.0
 12
0.0
 22
0.0
 32
0.0
 14
0.0
 24
0.0
 34
0.0
 15
420.0
 25
297.0
 35
0.0
146
0.0
 13
0.0
 23
0.0
 33
0.0
 16
1.0
 26
0.0
 36
0.0
 17
0.0
 27
1.0
 37
0.0
 76
     0
330
1F
331
29
  0
MLINESTYLE
  5
18
102
{ACAD_REACTORS
330
17
102
}
330
17
100
AcDbMlineStyle
  2
Standard
 70
     0
  3

 62
   256
 51
90.0
 52
90.0
 71
     2
 49
0.5
 62
   256
  6
BYLAYER
 49
-0.5
 62
   256
  6
BYLAYER
  0
ACDBPLACEHOLDER
  5
F
102
{ACAD_REACTORS
330
E
102
}
330
E
  0
SCALE
  5
48
102
{ACAD_REACTORS
330
47
102
}
330
47
100
AcDbScale
 70
     0
300
1:1
140
1.0
141
1.0
290
     1
  0
SCALE
  5
49
102
{ACAD_REACTORS
330
47
102
}
330
47
100
AcDbScale
 70
     0
300
1:2
140
1.0
141
2.0
290
     0
  0
SCALE
  5
4A
102
{ACAD_REACTORS
330
47
102
}
330
47
100
AcDbScale
 70
     0
300
1:4
140
1.0
141
4.0
290
     0
  0
SCALE
  5
4B
102
{ACAD_REACTORS
330
47
102
}
330
47
100
AcDbScale
 70
     0
300
1:5
140
1.0
141
5.0
290
     0
  0
SCALE
  5
4C
102
{ACAD_REACTORS
330
47
102
}
330
47
100
AcDbScale
 70
     0
300
1:8
140
1.0
141
8.0
290
     0
  0
SCALE
  5
4D
102
{ACAD_REACTORS
330
47
102
}
330
47
100
AcDbScale
 70
     0
300
1:10
140
1.0
141
10.0
290
     0
  0
SCALE
  5
4E
102
{ACAD_REACTORS
330
47
102
}
330
47
100
AcDbScale
 70
     0
300
1:16
140
1.0
141
16.0
290
     0
  0
SCALE
  5
4F
102
{ACAD_REACTORS
330
47
102
}
330
47
100
AcDbScale
 70
     0
300
1:20
140
1.0
141
20.0
290
     0
  0
SCALE
  5
50
102
{ACAD_REACTORS
330
47
102
}
330
47
100
AcDbScale
 70
     0
300
1:30
140
1.0
141
30.0
290
     0
  0
SCALE
  5
51
102
{ACAD_REACTORS
330
47
102
}
330
47
100
AcDbScale
 70
     0
300
1:40
140
1.0
141
40.0
290
     0
  0
SCALE
  5
52
102
{ACAD_REACTORS
330
47
102
}
330
47
100
AcDbScale
 70
     0
300
1:50
140
1.0
141
50.0
290
     0
  0
SCALE
  5
53
102
{ACAD_REACTORS
330
47
102
}
330
47
100
AcDbScale
 70
     0
300
1:100
140
1.0
141
100.0
290
     0
  0
SCALE
  5
54
102
{ACAD_REACTORS
330
47
102
}
330
47
100
AcDbScale
 70
     0
300
2:1
140
2.0
141
1.0
290
     0
  0
SCALE
  5
55
102
{ACAD_REACTORS
330
47
102
}
330
47
100
AcDbScale
 70
     0
300
4:1
140
4.0
141
1.0
290
     0
  0
SCALE
  5
56
102
{ACAD_REACTORS
330
47
102
}
330
47
100
AcDbScale
 70
     0
300
8:1
140
8.0
141
1.0
290
     0
  0
SCALE
  5
57
102
{ACAD_REACTORS
330
47
102
}
330
47
100
AcDbScale
 70
     0
300
10:1
140
10.0
141
1.0
290
     0
  0
SCALE
  5
58
102
{ACAD_REACTORS
330
47
102
}
330
47
100
AcDbScale
 70
     0
300
100:1
140
100.0
141
1.0
290
     0
  0
ENDSEC
  0
EOF
